Hoobastank - The Reason Chords & Tabs

 

The Reason Chords & Tabs

Hoobastank Chords & Tabs

Version: 9 Type: Tab 0 ratings
1 star 2 stars 3 stars 4 stars 5 stars
comments

The Reason Tab

   
The Reason
by Hoobastank

tab by ERIC [fookwanfoo@hotmail.com]

THE CHORDS

E:      022100
C#9:    X46644
A9:     X02200
B9:     X24422
D/A:    X0034X 


RIFF 1
e|----------------------------------------------------
B|--------7-----9-----------------7-----9-------------
G|--%--9--------------8-----9-----------------8-------
D|----------------------------------------------------
A|---------------------------------------------------- 
E|---------------------------------------------------- 

e|----------------------------------------------------
B|--------7-----9-----------------7-----9-------------
G|--9-----------------8-----9-----------------8-------
D|----------------------------------------------------
A|---------------------------------------------------- 
E|---------------------------------------------------- 

RIFF 2
e|----------------------------------------------------
B|--------4-----5-----------------4-----5-------------
G|--%--6--------------4-----6-----------------4-------
D|----------------------------------------------------
A|---------------------------------------------------- 
E|---------------------------------------------------- 

e|----------------------------------------------------
B|--------4-----5-----------------4-----5-------------
G|--6-----------------4-----6-----------------4-------
D|----------------------------------------------------
A|---------------------------------------------------- 
E|---------------------------------------------------- 

RIFF 3

e|----------------------------------------------------
B|--------2-----4-----------------2-----4-------------
G|--%--4--------------2-----4-----------------2-------
D|----------------------------------------------------
A|---------------------------------------------------- 
E|---------------------------------------------------- 
[ Tab from: http://www.guitartabs.cc/tabs/h/hoobastank/the_reason_tab_ver_9.html ]
e|----------------------------------------------------
B|--------2-----4-----------------2-----4-------------
G|--4-----------------2-----4-----------------2-------
D|----------------------------------------------------
A|---------------------------------------------------- 
E|---------------------------------------------------- 


riff 4
e|--11-12-11-12-11-12-11-12-11-12-11-12-11-12-11-12---
B|----------------------------------------------------
G|----------------------------------------------------
D|----------------------------------------------------
A|---------------------------------------------------- 
E|---------------------------------------------------- 

e|--11-12-11-12-11-12-11-12-11-12-11-12-11-12-11-12---
B|----------------------------------------------------
G|----------------------------------------------------
D|----------------------------------------------------
A|---------------------------------------------------- 
E|---------------------------------------------------- 

riff5
e|----------------------------------------------------
B|----------------------------------------------------
G|----------------------------------------------------
D|--9---------\----------7---\------2-----------------
A|---------------------------------------------------- 
E|---------------------------------------------------- 

Putting it together:

*VERSE1

Guitar1:    guitar2
RIFF1
RIFF2
RIFF1
RIFF2
RIFF2
RIFF3       riff4

*CHORUS
Guitar1:    Guitar2:
E           XXXXX12
C#9         XXXXX16
A9          xxxxx17
B9          xxxxx14 

*VERSE2

Guitar1:    guitar2
RIFF1
RIFF2
RIFF1
RIFF2
RIFF2
RIFF3       riff4

*CHORUS
Guitar1:    Guitar2:
E           XXXXX12
C#9         XXXXX16
A9          xxxxx17
B9          xxxxx14 


*BRIDGE
Guitar1:    Guitar2:
D/A         xxxxx12
E           xxxxx16
D/A         xxxxx17
E           xxxxx16

*VERSE3
Guitar1:    Guitar2:
RIFF1
RIFF2
RIFF2
RIFF3       riff4

*OUTRO CHORUS
Guitar1:    Guitar2:
E           XXXXX12
C#9         XXXXX16
A9          xxxxx17
B9          xxxxx14
E           riff5
Comments