Hoobastank - The Reason Chords & Tabs

 

The Reason Chords & Tabs

Hoobastank Chords & Tabs

Version: 8 Type: Tab 0 ratings
1 star 2 stars 3 stars 4 stars 5 stars
comments

The Reason Tab

   
The Reason
Hoobastank
tabbed by: matt_tml_

this song is pretty easy to play and its a great song.
i hope u guys enjoy it. input is appreciated and could you please rate the tab. thanx

intro/verse guitar 1
e-------------------------------------------------11-12-(x8)---
b--------------------------------------------------------------
g--------------------------------------------------------------
d--------------------------------------------------------------
a -7-(x48)-4-(x16)-7-(x16)-4-(x16)-0-(x16)---------------------
e--------------------------------------------------------------
[ Tab from: http://www.guitartabs.cc/tabs/h/hoobastank/the_reason_tab_ver_8.html ]
intro/verse guitar 2

riff a		     riff b	
e---------------l	    1------------1
b--------9------l	    1------5-----1
g-9-11-----8----l	    1-6-8---4----1
d---------------l	    1------------1
a---------------l	    1------------1
e---------------l	x8 l-------------1	x8

riff a x4
riff b x16

chorus
e-----------------------------------
b-----------------------------------
g-9--------6--------2---------4-----
d-9--------6--------2---------4-----
a-7-(x16)--4-(x16)--0-(x16----2-(x16)
e-----------------------------------

intro/verse x1
chorus x2
intro/verse x1
chorus x2


fin
Comments