Hoobastank - The Reason Chords & Tabs

 

The Reason Chords & Tabs

Hoobastank Chords & Tabs

Version: 6 Type: Tab 0 ratings
1 star 2 stars 3 stars 4 stars 5 stars
comments

The Reason Tab

   
Title- The Reason
Band-  Hoobastank
Album- The Reason (get it, you’ll like it)
Track 8

Standard Tuning


Begins with quarter notes on piano, then drums

Intro
E[-----4----]
B[-5-7---4--]	(6x)
G[----------]	

Verse1
I’m not a perfect person…
E[-----4----]
B[-5-7---4--]	(2x)

E[----------]
B[-2-4-5--0-]	(4x)
G[----------]

E[-----4----]
B[-5-7---4--]	(4x)
G[----------]

E[----------]
B[-2-4-5--0-]	(8x)
G[----------]

E[----------]
B[-0-2-4--0-]	(4x)
G[----------]

Chorus1
   E C#m7  A2 Bsus
E[-0---0---0---0--]
B[-0---0---0---0--]
G[-1---6---2---4--]
D[-2---6---2---4--]
A[-2---4---0---2--]
E[-0--------------]

Verse2
I’m sorry that I hurt You…
E[-----4----]
B[-5-7---4--]	(4x)

E[----------]
B[-2-4-5--0-]	(4x)
G[----------]

E[-----4----]
B[-5-7---4--]	(4x)
G[----------]
[ Tab from: http://www.guitartabs.cc/tabs/h/hoobastank/the_reason_tab_ver_6.html ]
E[----------]
B[-2-4-5--0-]	(8x)
G[----------]

E[----------]
B[-0-2-4--0-]	(4x)
G[----------]

Chorus2
   E C#m7  A2 Bsus
E[-0---0---0---0--]
B[-0---0---0---0--]
G[-1---6---2---4--]
D[-2---6---2---4--]
A[-2---4---0---2--]
E[-0--------------]

Bridge
And the reason is You…
   D2 E  D2 E
E[-0--0--0--0--]
B[-3--0--3--0--]
G[-2--1--2--1--]
D[-0--2--0--2--]
A[----2-----2--]
E[----0-----0--]

Verse3
I’m not a perfect person…
E[-----4----]
B[-5-7---4--]	(2x)

E[----------]
B[-2-4-5--0-]	(8x)
G[----------]

E[----------]
B[-0-2-4--0-]	(4x)
G[----------]

Chorus3
   E C#m7  A2 Bsus
E[-0---0---0---0--]
B[-0---0---0---0--]
G[-1---6---2---4--]	(2x)
D[-2---6---2---4--]
A[-2---4---0---2--]
E[-0--------------]

Ends on ‘E’

Tabbed by Robby Valderrama
www.celede.net
Comments