Hoobastank - The Reason Chords & Tabs

 

The Reason Chords & Tabs

Hoobastank Chords & Tabs

Version: 12 Type: Tab 0 ratings
1 star 2 stars 3 stars 4 stars 5 stars
comments

The Reason Tab

   
Band- Hoobastank
Album- The Reason

1.SAME DIRECTION

intro part 1

e----------0--------0-------------0--------0---|
B-------3--------3-------------3--------3------|
G-------------4--------4-------------4-------4-|
D-2-2-2------------------0-0-0-----------------|
A----------------------------------------------|
D----------------------------------------------|


e----------0--------0-------------0------------|
B-------3--------3-------------3-----------7-5-|
G-------------4--------4-----------------------|
D----------------------------------------------|
A-4-4-4------------------3-3-3------5-5-5------|
D----------------------------------------------|

intro part 2

e-------3-3-3-------3-3-3-----3-3----------------------------------|
B-------3-3-3-------3-3-3-----3-3----------------------------------|
G---------------------------------------111111------111111----1111-|
D-2-2-2-------2-2-2-------2-2-----0-0-0-x-x-x-0-0-0-x-x-x-0-0-x-x--|
A-2-2-2-------2-2-2-------2-2-----0-0-0-9-9-9-0-0-0-9-9-9-0-0-9-9--|
D-2-2-2-------2-2-2-------2-2-----0-0-0-------0-0-0-------0-0------|


e----------------------------------------------------------------------|
B----------------------------------------------------------------------|
G-------121212-------121212-----1212--------9-9-9-------111111----1111-|
D-7-7-7--x-x-x-7-7-7--x-x-x-7-7--x-x-101010-x-x-x-0-0-0-x-x-x-0-0-x-x--|
A-7-7-7-101010-7-7-7-101010-7-7-1010-101010-7-7-7-0-0-0-9-9-9-0-0-9-9--|
D-7-7-7--------7-7-7--------7-7------101010-------0-0-0-------0-0------|

then:
intro x2

chorus

e-------3-3-3-------3-3-3-----33--------------------------------|
B-------3-3-3-------3-3-3-----33--------------------------------|
G--------------------------------------111111------111111----11-|
D-2-2-2-------2-2-2-------2-2----0-0-0-x-x-x-0-0-0-x-x-x-0-0-x--|
A-2-2-2-------2-2-2-------2-2----0-0-0-9-9-9-0-0-0-9-9-9-0-0-9--|
D-2-2-2-------2-2-2-------2-2----0-0-0-------0-0-0-------0-0----|

e-------------------------------------------------------------------|
B-------------------------------------------------------------------|
G-------------------------------------------------------------------|
D-7-7-7-7-7-7-7-7-7-7-7-7-7-7-7-7-1212121212121212-1212121212121212-|
A-7-7-7-7-7-7-7-7-7-7-7-7-7-7-7-7-1010101010101010-1212121212121212-|
D-7-7-7-7-7-7-7-7-7-7-7-7-7-7-7-7-1010101010101010-1212121212121212-|	x2

then:
intro x2
chorus x2

interlude

e----------------------------------|
B----------------------------------|
G----------------------------------|
D-1212121212121212-1212121212121212
A-1010101010101010-1212121212121212
D-1010101010101010-1212121212121212

e-------3-3-3-------3-3-3-----33--|
B-------3-3-3-------3-3-3-----33--|
G---------------------------------|
D-2-2-2-------2-2-2-------2-2-----|
A-2-2-2-------2-2-2-------2-2-----|
D-2-2-2-------2-2-2-------2-2-----|	x4

e---------------------------------|
B---------------------------------|
G---------------------------------|
D-20222202222220222000002000000020
A-20222202222220222000002000000020
D-20222202222220222000002000000020


e-------------------------------------------------------------------|
B-------------------------------------------------------------------|
G-------------------------------------------------------------------|
D-7-7-7-7-7-7-7-7-7-7-7-7-7-7-7-7-1212121212121212-1212121212121212-|
A-7-7-7-7-7-7-7-7-7-7-7-7-7-7-7-7-1010101010101010-1212121212121212-|
D-7-7-7-7-7-7-7-7-7-7-7-7-7-7-7-7-1010101010101010-1212121212121212-|

e-----------------------------------|
B-----------------------------------|
G-----------------------------------|
D-1212121212121212-1212121212121212-|
A-1010101010101010-1212121212121212-|
D-1010101010101010-1212121212121212-|	X2


e----------0--------0-------------0--------0---|
B-------3--------3-------------3--------3------|
G-------------4--------4-------------4-------4-|
D-2-2-2------------------0-0-0-----------------|
A----------------------------------------------|
D----------------------------------------------|

e----------------------------------------------------------------------|
B----------------------------------------------------------------------|
G-------121212-------121212-----1212-----------------------------------|
D-7-7-7--x-x-x-7-7-7--x-x-x-7-7--x-x-1212121212121212-1212121212121212-|
A-7-7-7-101010-7-7-7-101010-7-7-1010-1010101010101010-1212121212121212-|
D-7-7-7--------7-7-7--------7-7------1010101010101010-1212121212121212-|

then:
chorus x1

outro

e-------3-3-3-------3-3-3-----3-3-|
B-------3-3-3-------3-3-3-----3-3-|
G---------------------------------|
D-2-2-2-------2-2-2-------2-2-----|
A-2-2-2-------2-2-2-------2-2-----|
D-2-2-2-------2-2-2-------2-2-----|	X4

2.OUT OF CONTROL

INTRO [distortion]

   [0:00]
 E|-------------------------------------------------------------------|
 B|-X-8-X-8-X-8-X-8-X-7-X-7-X-7-X-7-X-5-X-5-X-5-X-5-X-----------------|
 G|-------------------------------------------------------------------|
 D|---------------------------------------------------7-X-7-X-7-7-7-7-|
 A|-X-7-X-7-X-7-X-7-X-7-X-7-X-7-X-7-X-5-X-5-X-5-X-5-X-7-X-7-X-7-7-7-7-|
 D|---------------------------------------------------7-X-7-X-7-7-7-7-|

VERSE 1

   [0:06] "I've done everything..."                                 3x
 E|-------------------------------------------------------------------|
 B|-X-8-X-8-X-8-X-8-X-7-X-7-X-7-X-7-X-5-X-5-X-5-X-5-X-----------------|
 G|-------------------------------------------------------------------|
 D|---------------------------------------------------7-X-7-X-7-7-7-7-|
 A|-X-7-X-7-X-7-X-7-X-7-X-7-X-7-X-7-X-5-X-5-X-5-X-5-X-7-X-7-X-7-7-7-7-|
 D|---------------------------------------------------7-X-7-X-7-7-7-7-|

PRECHORUS 1

   [0:24] "I'm spinning..."
 E|-----------------------------------------------------------------|
 B|-----------------------------------------------------------------|
 G|---------------------------5-5-5---------------------------------|
 D|-2-2-2-4-5-4-2-2-2-4-5-4-2-5-5-5-2-2-2-4-5-4-2-2-2-4-5-4-2-3-3-3-|
 A|-2-2-2-4-5-4-2-2-2-4-5-4-2-3-3-3-2-2-2-4-5-4-2-2-2-4-5-4-2-3-3-3-|
 D|-2-2-2-4-5-4-2-2-2-4-5-4-2-------2-2-2-4-5-4-2-2-2-4-5-4-2-3-3-3-|

CHORUS 1

   [0:30] "Where should I go?"
 E|------------------------------------------------------------------------|
 B|------------------------------------------------------------------------|
 G|-------9-9-9-9-9---------12-12-12-12-12-----------------4-4-4-5-5-5-7-7-|
 D|-2-2-X-----------10-10-X----------------5-5-5-5-5-5-5-5-4-4-4-5-5-5-7-7-|
 A|-2-2-X-7-7-7-7-7-10-10-X-10-10-10-10-10-5-5-5-5-5-5-5-5-2-2-2-3-3-3-5-5-|
 D|-2-2-X-----------10-10-X----------------5-5-5-5-5-5-5-5-----------------|

   [0:37] "Cuz' I don't know..."
 E|----------------------------------------------------------------------------|
 B|----------------------------------------------------------------------------|
 G|-------9-9-9-9-9---------12-12-12-12-12-----------------7-7-7-7-11-11-12-12-|
 D|-2-2-X-----------10-10-X----------------9-9-9-9-9-9-9-9-7-7-7-7-------------|
 A|-2-2-X-7-7-7-7-7-10-10-X-10-10-10-10-10-9-9-9-9-9-9-9-9-5-5-5-5-9--9--10-10-|
 D|-2-2-X-----------10-10-X----------------9-9-9-9-9-9-9-9---------------------|

BREAK [very dirty grungy distortion]

   [0:42]
 E|-0-0-0-0-0-0-0-0-0-0-0-0-0-0-0-0-|
 B|-7-7-7-7-7-7-7-7-8-8-8-8-8-8-8-8-|
 G|---------------------------------|
 D|---------------------------------|
 A|---------------------------------|
 D|---------------------------------|

VERSE 2 [distortion]

   [0:45] "I feel like..."                                          2x
 E|-------------------------------------------------------------------|
 B|-X-8-X-8-X-8-X-8-X-7-X-7-X-7-X-7-X-5-X-5-X-5-X-5-X-----------------|
 G|-------------------------------------------------------------------|
 D|---------------------------------------------------7-X-7-X-7-7-7-7-|
 A|-X-7-X-7-X-7-X-7-X-7-X-7-X-7-X-7-X-5-X-5-X-5-X-5-X-7-X-7-X-7-7-7-7-|
 D|---------------------------------------------------7-X-7-X-7-7-7-7-|

   [0:57] "So let me know..."
 E|-------------------------------------------------------------------|
 B|-8-8-8-8-8-8-8-8-7-7-7-7-7-7-7-7-5-5-5-5-5-5-5-5-5-----------------|
 G|-------------------------------------------------------------------|
 D|---------------------------------------------------7-7-7-7-7-7-7-7-|
 A|-7-7-7-7-7-7-7-7-7-7-7-7-7-7-7-7-5-5-5-5-5-5-5-5-5-7-7-7-7-7-7-7-7-|
 D|---------------------------------------------------7-7-7-7-7-7-7-7-|

PRECHORUS 2

   [1:03] "I'm spinning..."
 E|-----------------------------------------------------------------|
 B|-----------------------------------------------------------------|
 G|---------------------------5-5-5---------------------------------|
 D|-2-2-2-4-5-4-2-2-2-4-5-4-2-5-5-5-2-2-2-4-5-4-2-2-2-4-5-4-2-3-3-3-|
 A|-2-2-2-4-5-4-2-2-2-4-5-4-2-3-3-3-2-2-2-4-5-4-2-2-2-4-5-4-2-3-3-3-|
 D|-2-2-2-4-5-4-2-2-2-4-5-4-2-------2-2-2-4-5-4-2-2-2-4-5-4-2-3-3-3-|

CHORUS 2

   [1:10] "Where should I go?"
 E|------------------------------------------------------------------------|
 B|------------------------------------------------------------------------|
 G|-------9-9-9-9-9---------12-12-12-12-12-----------------4-4-4-5-5-5-7-7-|
 D|-2-2-X-----------10-10-X----------------5-5-5-5-5-5-5-5-4-4-4-5-5-5-7-7-|
 A|-2-2-X-7-7-7-7-7-10-10-X-10-10-10-10-10-5-5-5-5-5-5-5-5-2-2-2-3-3-3-5-5-|
 D|-2-2-X-----------10-10-X----------------5-5-5-5-5-5-5-5-----------------|

   [1:16] "Cuz' I don't know..."
 E|----------------------------------------------------------------------------|
 B|----------------------------------------------------------------------------|
 G|-------9-9-9-9-9---------12-12-12-12-12-----------------7-7-7-7-11-11-12-12-|
 D|-2-2-X-----------10-10-X----------------9-9-9-9-9-9-9-9-7-7-7-7-------------|
 A|-2-2-X-7-7-7-7-7-10-10-X-10-10-10-10-10-9-9-9-9-9-9-9-9-5-5-5-5-9--9--10-10-|
 D|-2-2-X-----------10-10-X----------------9-9-9-9-9-9-9-9---------------------|

   [1:22] "And I may never know..."
 E|-------------------------------------------------------------------------|
 B|-------------------------------------------------------------------------|
 G|-------------------------------------------------------------------------|
 D|-2-2-2-2-2-2-2-2-10-10-10-10-10-10-10-10-5-5-5-5-5-5-5-5-9-9-9-9-9-9-9-9-|
 A|-2-2-2-2-2-2-2-2-10-10-10-10-10-10-10-10-5-5-5-5-5-5-5-5-9-9-9-9-9-9-9-9-|
 D|-2-2-2-2-2-2-2-2-10-10-10-10-10-10-10-10-5-5-5-5-5-5-5-5-9-9-9-9-9-9-9-9-|

   [1:28] "Where should I go?"
 E|-------------------------------------------------------------------------|
 B|-------------------------------------------------------------------------|
 G|-------9-9-9-9-9---------12-12-12-12-12-----------------1414141414141414-|
 D|-2-2-X-----------10-10-X----------------9-9-9-9-9-9-9-9------------------|
 A|-2-2-X-7-7-7-7-7-10-10-X-10-10-10-10-10-9-9-9-9-9-9-9-9-1212121212121212-|
 D|-2-2-X-----------10-10-X----------------9-9-9-9-9-9-9-9------------------|

PRECHORUS 3

   [1:34] "It's still a mystery!"                                 2X
 E|-----------------------------------------------------------------|
 B|-----------------------------------------------------------------|
 G|---------------------------5-5-5---------------------------------|
 D|-2-2-X-4-5-4-2-2-X-4-5-4-2-5-5-5-2-2-X-4-5-4-2-2-X-4-5-4-2-3-3-3-|
 A|-2-2-X-4-5-4-2-2-X-4-5-4-2-3-3-3-2-2-X-4-5-4-2-2-X-4-5-4-2-3-3-3-|
 D|-2-2-X-4-5-4-2-2-X-4-5-4-2-------2-2-X-4-5-4-2-2-X-4-5-4-2-3-3-3-|

BRIDGE

   [1:46] "Spinning..."           3x [1:55] "Spinning..."
 E|-------0-0-0-0-0-0-0-0-0-0-0-0-0-|-------0-0-0-0-0-0-X-------------|
 B|-------5-5-5-5-5-5-3-3-3-6-6-6-6-|-------5-5-5-5-5-5-X-------------|
 G|---------------------------------|---------------------------------|
 D|-2-2-X---------------------------|-2-2-X---------------------------|
 A|-2-2-X---------------------------|-2-2-X---------------------------|
 D|-2-2-X---------------------------|-2-2-X---------------------------|

PRECHORUS 4

   [1:58] "I'm spinning..."                                       2x
 E|-----------------------------------------------------------------|
 B|-----------------------------------------------------------------|
 G|---------------------------5-5-5---------------------------------|
 D|-2-2-2-4-5-4-2-2-2-4-5-4-2-5-5-5-2-2-2-4-5-4-2-2-2-4-5-4-2-3-3-3-|
 A|-2-2-2-4-5-4-2-2-2-4-5-4-2-3-3-3-2-2-2-4-5-4-2-2-2-4-5-4-2-3-3-3-|
 D|-2-2-2-4-5-4-2-2-2-4-5-4-2-------2-2-2-4-5-4-2-2-2-4-5-4-2-3-3-3-|

CHORUS 3

   [2:10] "Where should I go?"
 E|------------------------------------------------------------------------|
 B|------------------------------------------------------------------------|
 G|-------9-9-9-9-9---------12-12-12-12-12-----------------4-4-4-5-5-5-7-7-|
 D|-2-2-X-----------10-10-X----------------5-5-5-5-5-5-5-5-4-4-4-5-5-5-7-7-|
 A|-2-2-X-7-7-7-7-7-10-10-X-10-10-10-10-10-5-5-5-5-5-5-5-5-2-2-2-3-3-3-5-5-|
 D|-2-2-X-----------10-10-X----------------5-5-5-5-5-5-5-5-----------------|

   [2:17] "Cuz' I don't know..."
 E|----------------------------------------------------------------------------|
 B|----------------------------------------------------------------------------|
 G|-------9-9-9-9-9---------12-12-12-12-12-----------------7-7-7-7-11-11-12-12-|
 D|-2-2-X-----------10-10-X----------------9-9-9-9-9-9-9-9-7-7-7-7-------------|
 A|-2-2-X-7-7-7-7-7-10-10-X-10-10-10-10-10-9-9-9-9-9-9-9-9-5-5-5-5-9--9--10-10-|
 D|-2-2-X-----------10-10-X----------------9-9-9-9-9-9-9-9---------------------|

   [2:23] "And I may never know..."
 E|-------------------------------------------------------------------------|
 B|-------------------------------------------------------------------------|
 G|-------------------------------------------------------------------------|
 D|-2-2-2-2-2-2-2-2-10-10-10-10-10-10-10-10-5-5-5-5-5-5-5-5-9-9-9-9-9-9-9-9-|
 A|-2-2-2-2-2-2-2-2-10-10-10-10-10-10-10-10-5-5-5-5-5-5-5-5-9-9-9-9-9-9-9-9-|
 D|-2-2-2-2-2-2-2-2-10-10-10-10-10-10-10-10-5-5-5-5-5-5-5-5-9-9-9-9-9-9-9-9-|

   [2:29] "Where should I go?"
 E|-------------------------------------------------------------------------|
 B|-------------------------------------------------------------------------|
 G|-------9-9-9-9-9---------12-12-12-12-12-----------------1414141414141414-|
 D|-2-2-X-----------10-10-X----------------9-9-9-9-9-9-9-9------------------|
 A|-2-2-X-7-7-7-7-7-10-10-X-10-10-10-10-10-9-9-9-9-9-9-9-9-1212121212121212-|
 D|-2-2-X-----------10-10-X----------------9-9-9-9-9-9-9-9------------------|

ENDING

   [2:35] "I'm spinning..."
 E|-----------------------------------------------------------------|
 B|-----------------------------------------------------------------|
 G|---------------------------5-5-5---------------------------------|
 D|-2-2-2-4-5-4-2-2-2-4-5-4-2-5-5-5-2-2-2-4-5-4-2-2-2-4-5-4-2-3-3-3-|
 A|-2-2-2-4-5-4-2-2-2-4-5-4-2-3-3-3-2-2-2-4-5-4-2-2-2-4-5-4-2-3-3-3-|
 D|-2-2-2-4-5-4-2-2-2-4-5-4-2-------2-2-2-4-5-4-2-2-2-4-5-4-2-3-3-3-|

3.WHAT HAPPENED TO US?

Intro/Bridge:    Intro - 0:05
D|---------------------------------------------------------------------|
A|---------------------------------------------------------------------|
F|------7-------7-------7-------7-------7-------7-------7-------7------|
C|--------5-------5-------5-------5/4-----4-------4-------4-------4\5--|
G|----------7-------7-------7---------------7-------7-------7----------|
D|--0-0-------0-------0-------0-------0-------0-------0-------0--------|


D|---------------------------------------------------------------------|
A|---------------------------------------------------------------------|
F|------7-------7-------7-------7-------7-------7-------7-------7------|
C|--------5-------5-------5-------5/4-----4-------4-------4-------4----|
G|----------7-------7-------7---------------7-------7-------7----------|
D|----0-------0-------0-------0-------0-------0-------0-------0--------|


0:15
D|---------------------------------------------------------------------|
A|---------------------------------------------------------------------|
F|------0---7---------0---7---------0---7-0------0---7-0---------------|
C|----5---5---5-----5---5---5-----4---4--------4---4-------------------|
G|--3-------------3-------------5------------5-------------------------|
D|---------------------------------------------------------------------|

D|---------------------------------------------------------------------|
A|---------------------------------------------------------------------|
F|------7-------7-------7-------7-------7-------7-------7-------7------|
C|--------5-------5-------5-------5/4-----4-------4-------4-------4----|
G|----------7-------7-------7---------------7-------7-------7----------|
D|----0-------0-------0-------0-------0-------0-------0-------0--------|


0:26
D|-------------------------------------------------------------------|
A|-------------------------------------------------------------------|
F|-------------------------------------------------------------------|
C|------9---9------9---9------9---9------9---9-------9---9-----9---9-|
G|----7---7------7---7------7---7------7---7-------7---7-----7---7---|
D|--0----------0----------0----------0-----------8---------8---------|


D|-------------0-----------------------------------------------------|
A|-------------0-----------------------------------------------------|
F|-------------0-----------------------------------------------------|
C|------7------9-----------------------------------------------------|
G|----7--------7-----------------------------------------------------|
D|--5------10-10-----------------------------------------------------|

D|-------------------------------------------------------------------|
A|-------------------------------------------------------------------|
F|-------------------------------------------------------------------|
C|------9---9------9---9------9---9------9---9-------9---9-----9---9-|
G|----7---7------7---7------7---7------7---7-------7---7-----7---7---|
D|--0----------0----------0----------0-----------8---------8---------|


D|-------------0-----------------------------------------------------|
A|-------------0-----------------------------------------------------|
F|-------------0-----------------------------------------------------|
C|------7------9-----------------------------------------------------|
G|----7--------7-----------------------------------------------------|
D|--5------10-10-----------------------------------------------------|

D|-------------------------------------------------------------------|
A|-------------------------------------------------------------------|
F|-------------------------------------------------------------------|
C|------9---9------9---9------9---9------9---9-------9---9-----9---9-|
G|----7---7------7---7------7---7------7---7-------7---7-----7---7---|
D|--0----------0----------0----------0-----------8---------8---------|


D|-------------0-----------------------------------------------------|
A|-------------0-----------------------------------------------------|
F|-------------0-----------------------------------------------------|
C|------7------9-----------------------------------------------------|
G|----7--------7-----------------------------------------------------|
D|--5------10-10-----------------------------------------------------|

D|-------------------------------------------------------------------|
A|-------------------------------------------------------------------|
F|-------------------------------------------------------------------|
C|------9---9------9---9------9---9------9---9-------9---9-----9---9-|
G|----7---7------7---7------7---7------7---7-------7---7-----7---7---|
D|--0----------0----------0----------0-----------8---------8---------|


D|------------------------------------------------------------------|
A|------------------------------------------------------------------|
F|------------------------------------------------------------------|
C|------7--9-9-9-9-9------------------------------------------------|
G|----7----7-7-7-7-7------------------------------------------------|
D|--5------7-7-7-7-7------------------------------------------------|

Chorus: 1:06
D|----------------------------------------------------------------------|
A|----------------------------------------------------------------------|
F|----------------------------------------------------------------------|
C|--2-2-x-x---5/4/2--5/4/2---2-2-x-x--5/4/2--5/4/2--7-----10-----12-----|
G|--2-2-x-x---5/4/2--5/4/2---2-2-x-x--5/4/2--5/4/2--7-----10-----12-----|
D|--0-0-x-x---3/2/0--3/2/0---0-0-x-x--3/2/0--3/2/0--5-x12--8-x8--10-x8--| X2

1:28
D|-------------------------------------------------------------------|
A|-------------------------------------------------------------------|
F|-------------------------------------------------------------------|
C|------9---9------9---9------9---9------9---9-------9---9-----9---9-|
G|----7---7------7---7------7---7------7---7-------7---7-----7---7---|
D|--0----------0----------0----------0-----------8---------8---------|


D|-------------0-----------------------------------------------------|
A|-------------0-----------------------------------------------------|
F|-------------0-----------------------------------------------------|
C|------7------9-----------------------------------------------------|
G|----7--------7-----------------------------------------------------|
D|--5------10-10-----------------------------------------------------|

D|-------------------------------------------------------------------|
A|-------------------------------------------------------------------|
F|-------------------------------------------------------------------|
C|------9---9------9---9------9---9------9---9-------9---9-----9---9-|
G|----7---7------7---7------7---7------7---7-------7---7-----7---7---|
D|--0----------0----------0----------0-----------8---------8---------|


D|-------------0-----------------------------------------------------|
A|-------------0-----------------------------------------------------|
F|-------------0-----------------------------------------------------|
C|------7------9-----------------------------------------------------|
G|----7--------7-----------------------------------------------------|
D|--5------10-10-----------------------------------------------------|

D|-------------------------------------------------------------------|
A|-------------------------------------------------------------------|
F|-------------------------------------------------------------------|
C|------9---9------9---9------9---9------9---9-------9---9-----9---9-|
G|----7---7------7---7------7---7------7---7-------7---7-----7---7---|
D|--0----------0----------0----------0-----------8---------8---------|


D|-------------0-----------------------------------------------------|
A|-------------0-----------------------------------------------------|
F|-------------0-----------------------------------------------------|
C|------7------9-----------------------------------------------------|
G|----7--------7-----------------------------------------------------|
D|--5------10-10-----------------------------------------------------|

D|-------------------------------------------------------------------|
A|-------------------------------------------------------------------|
F|-------------------------------------------------------------------|
C|------9---9------9---9------9---9------9---9-------9---9-----9---9-|
G|----7---7------7---7------7---7------7---7-------7---7-----7---7---|
D|--0----------0----------0----------0-----------8---------8---------|


D|------------------------------------------------------------------|
A|------------------------------------------------------------------|
F|------------------------------------------------------------------|
C|------7--9-9-9-9-9------------------------------------------------|
G|----7----7-7-7-7-7------------------------------------------------|
D|--5------7-7-7-7-7------------------------------------------------|

1:59 Guitar 2
D|-------------------------------------------------------------------|
A|-------------------------------------------------------------------|
F|-------------------------------------------------------------------|
C|--2~~~~--4~~~~--5~~~~--7-------------------------------------------|
G|-------------------------------------------------------------------|
D|-------------------------------------------------------------------|

Chorus: 2:10
D|----------------------------------------------------------------------|
A|----------------------------------------------------------------------|
F|----------------------------------------------------------------------|
C|--2-2-x-x---5/4/2--5/4/2---2-2-x-x--5/4/2--5/4/2--7-----10-----12-----|
G|--2-2-x-x---5/4/2--5/4/2---2-2-x-x--5/4/2--5/4/2--7-----10-----12-----|
D|--0-0-x-x---3/2/0--3/2/0---0-0-x-x--3/2/0--3/2/0--5-x12--8-x8--10-x8--| X2


2:35 Guitar 2
D|--0-----------------------------------------------------|
A|--0-----------------------------------------------------|
F|--0-----------------------------------------------------|
C|--9-----------------------------------------------------|
G|--7-----------------------------------------------------|
D|-10-----------------------------------------------------|

Guitar 1
D|-------------------------------------------------------------------|
A|-------------------------------------------------------------------|
F|--------7----------7---------7----------7-----------7---------7----|
C|------5---5------5---5---------4----------4-----------4------------|
G|----3----------3-----------5-----5----5-----5-----5-----5----------|
D|--0----------0-----------0----------0-----------0-----------0------|

D|---------------------------------------------------------------------|
A|---------------------------------------------------------------------|
F|------7-------7-------7-------7-------7-------7-------7-------7------|
C|--------5-------5-------5-------5/4-----4-------4-------4-------4----|
G|----------7-------7-------7---------------7-------7-------7----------|
D|----0-------0-------0-------0-------0-------0-------0-------0--------|

 2:56 Guitar 2
D|--0-----------------------------------------------------|
A|--0-----------------------------------------------------|
F|--0-----------------------------------------------------|
C|--9-----------------------------------------------------|
G|--7-----------------------------------------------------|
D|-10-----------------------------------------------------|

Guitar 1
D|-------------------------------------------------------------------|
A|-------------------------------------------------------------------|
F|--------7----------7---------7----------7-----------7---------7----|
C|------5---5------5---5---------4----------4-----------4------------|
G|----3----------3-----------5-----5----5-----5-----5-----5----------|
D|--0----------0-----------0----------0-----------0-----------0------|

D|---------------------------------------------------------------------|
A|---------------------------------------------------------------------|
F|------7-------7-------7-------7-------7-------7-------7-------7------|
C|--------5-------5-------5-------5/4-----4-------4-------4-------4----|
G|----------7-------7-------7---------------7-------7-------7----------|
D|----0-------0-------0-------0-------0-------0-------0-------0--------|

 2:56 Guitar 2
D|--0-----------------------------------------------------|
A|--0-----------------------------------------------------|
F|--0-----------------------------------------------------|
C|--9-----------------------------------------------------|
G|--7-----------------------------------------------------|
D|-10-----------------------------------------------------|

Guitar 1
D|-------------------------------------------------------------------|
A|-------------------------------------------------------------------|
F|--------7----------7---------7----------7-----------7---------7----|
C|------5---5------5---5---------4----------4-----------4------------|
G|----3----------3-----------5-----5----5-----5-----5-----5----------|
D|--0----------0-----------0----------0-----------0-----------0------|

D|--------------0----------------------------------------------------|
A|--------------0----------------------------------------------------|
F|---------9----0----------------------------------------------------|
C|-------9-9----9----------------------------------------------------|
G|-5-5\7--------7----------------------------------------------------|
D|-------------10----------------------------------------------------|

3:05
D|-------------------------------------------------------------|
A|-------------------------------------------------------------|
F|-------------------------------------------------------------|
C|----9-9-9-9-9------------------------------------------------|
G|----7-7-7-7-7------------------------------------------------|
D|----7-7-7-7-7------------------------------------------------|

Chorus: 3:07
D|----------------------------------------------------------------------|
A|----------------------------------------------------------------------|
F|----------------------------------------------------------------------|
C|--2-2-x-x---5/4/2--5/4/2---2-2-x-x--5/4/2--5/4/2--7-----10-----12-----|
G|--2-2-x-x---5/4/2--5/4/2---2-2-x-x--5/4/2--5/4/2--7-----10-----12-----|
D|--0-0-x-x---3/2/0--3/2/0---0-0-x-x--3/2/0--3/2/0--5-x12--8-x8--10-x8--| X2

Ending 3:27
D|--------------------------------------------------|
A|--------------------------------------------------|
F|--------------------------------------------------|
C|--2-2-x-x---5/4/2--5/4/2---2-2-x-x--5/4/2--5/4/2--|
G|--2-2-x-x---5/4/2--5/4/2---2-2-x-x--5/4/2--5/4/2--|
D|--0-0-x-x---3/2/0--3/2/0---0-0-x-x--3/2/0--3/2/0--| X2

4.ESCAPE

[intro]
|----------------------------------------------------------------------------|
|----------------------------------------------------------------------------|
|-------0--------0--------0--------0--------0--------0--------0--------0-----|
|-----3--------3--------3--------3--------3--------3-------------------------| x2
|-----------------------------------------------------------3--------3-------|
|-3-3------3-3------3-3------3-3------1-1------1-1------0-0------0-0---------|

 [verse] (intro) x4

 [chorus]
|----------------------------------------------------------------------------------|------|
|----------------------------------------------------------------------------------|------|
|-------------------------------5-5-5-5-5--------------------------------5-5-5-5-5-|------|
|-8-8-8-8-8-5-5-5-5-5-3-3-3-3-3-5-5-5-5-5--8-8-8-8-8-8-8-8-8-8-3-3-3-3-3-5-5-5-5-5-|--8>--|
|-6-6-6-6-6-5-5-5-5-5-3-3-3-3-3-3-3-3-3-3--6-6-6-6-6-8-8-8-8-8-3-3-3-3-3-3-3-3-3-3-|--6>--|
|-6-6-6-6-6-3-3-3-3-3-1-1-1-1-1------------6-6-6-6-6-6-6-6-6-6-1-1-1-1-1-----------|--6>--|

 [verse] (intro) x4

 [chorus]
|---------------------------------------------------------------------------------|
|---------------------------------------------------------------------------------|
|-------------------------------5-5-5-5-5-------------------------------5-5-5-5-5-|
|-8-8-8-8-8-5-5-5-5-5-3-3-3-3-3-5-5-5-5-5-8-8-8-8-8-8-8-8-8-8-3-3-3-3-3-5-5-5-5-5-| x2
|-6-6-6-6-6-5-5-5-5-5-3-3-3-3-3-3-3-3-3-3-6-6-6-6-6-8-8-8-8-8-3-3-3-3-3-3-3-3-3-3-|
|-6-6-6-6-6-3-3-3-3-3-1-1-1-1-1-----------6-6-6-6-6-6-6-6-6-6-1-1-1-1-1-----------|

 then
|-------------------------|
|-------------------------|
|-------------------------|
|--6>----8>----6>----8>---|
|--6>----8>----6>----8>---|
|--4>----6>----4>----6>---|

 [solo]
|--------------------------------------------------------------------------------------------------|
|-------------6-6-6--------------------------6-6-6--------------6-6-6-------6-6-6-6-6-9-9-9-9-9-9--|
|-8-8-8-7-7-7-------8-8-8-7-7-7-------7-7-7---------8-8-8-7-7-7-------8-8-8------------------------|
|-------------------------------8-8-8--------------------------------------------------------------|
|--------------------------------------------------------------------------------------------------|
|--------------------------------------------------------------------------------------------------|

 [chorus]
|---------------------------------------------------------------------------------|
|---------------------------------------------------------------------------------|
|-------------------------------5-5-5-5-5-------------------------------5-5-5-5-5-|
|-8-8-8-8-8-5-5-5-5-5-3-3-3-3-3-5-5-5-5-5-8-8-8-8-8-8-8-8-8-8-3-3-3-3-3-5-5-5-5-5-| x4
|-6-6-6-6-6-5-5-5-5-5-3-3-3-3-3-3-3-3-3-3-6-6-6-6-6-8-8-8-8-8-3-3-3-3-3-3-3-3-3-3-|
|-6-6-6-6-6-3-3-3-3-3-1-1-1-1-1-----------6-6-6-6-6-6-6-6-6-6-1-1-1-1-1-----------|

 [end]
|--------|
|--------|
|--------|
|---8>---|
|---6>---|
|---6>---|

5.JUST ONE

Intro

e|----------------|----------------|----------------|----------------|
B|----------------|----------------|----------------|----------------|
G|------6---4-----|--8---9---4-4---|--8---9---4-4---|--6---11--8-8\--|
D|------x---x-----|--x---x---x-x---|--x---x---x-x---|--x---x---x-x---|
A|4-4-4-4---2---7-|7-6---7---2-2-0-|0-6---7---2-2-2-|2-4---9---6-6\--|
E|----------------|----------------|----------------|----------------|

e|----------------|----------------|----------------|----------------|
B|----------------|----------------|----------------|----------------|
G|------6---4-----|--8---9---4-4---|--8---9---4-4---|--6---11--8-8\--|
D|------x---x-----|--x---x---x-x---|--x---x---x-x---|--x---x---x-x---|
A|4-4-4-4---2---7-|7-6---7---2-2-0-|0-6---7---2-2-2-|2-4---9---6-6\--|
E|----------------|----------------|----------------|----------------|

e|----4-----------|----0-----------|----------------|----------------|
B|----4-----------|----0-----------|----------------|----------------|
G|----6---------2-|----2-----------|--------------4-|----4---4-4-4-4-|
D|6---6---------2-|----2-----------|2---2---2-2---4-|----4---4-4-4-4-|
A|4---4---------0-|----0-----------|2---2---2-2---2-|----2---2-2-2-2-|
E|4---4-----------|----------------|0---0---0-0-----|----------------|

e|----4-----------|----0-----------|----------------|----------------|
B|----4-----------|----0-----------|----------------|----------------|
G|----6---------2-|----2-----------|----------------|------4---4-4---|
D|6---6---------2-|----2-----------|4---4---4-4---2-|------4---4-4---|
A|4---4---------0-|----0-----------|4---4---4-4---2-|------2---2-2---|
E|4---4-----------|----------------|2---2---2-2---0-|----------------|


Verse x4 times

e|----------------|----------------|----------------|----------------|
B|----------------|----------------|----------------|----------------|
G|------6---4-----|--8---9---4-4---|--8---9---4-4---|--6---11--8-8\--|
D|------x---x-----|--x---x---x-x---|--x---x---x-x---|--x---x---x-x---|
A|4-4-4-4---2---7-|7-6---7---2-2-0-|0-6---7---2-2-2-|2-4---9---6-6\--|
E|----------------|----------------|----------------|----------------|


Chorus

e|----4-----------|----0-----------|----------------|----------------|
B|----4-----------|----0-----------|----------------|----------------|
G|----6---------2-|----2-----------|--------------4-|----4---4-4-4-4-|
D|6---6---------2-|----2-----------|2---2---2-2---4-|----4---4-4-4-4-|
A|4---4---------0-|----0-----------|2---2---2-2---2-|----2---2-2-2-2-|
E|4---4-----------|----------------|0---0---0-0-----|----------------|

e|----4-----------|----0-----------|----------------|----------------|
B|----4-----------|----0-----------|----------------|----------------|
G|----6---------2-|----2-----------|----------------|------4---4-4-4-|
D|6---6---------2-|----2-----------|4---4---4-4---2-|--2-2-4---4-4-4-|
A|4---4---------0-|----0-----------|4---4---4-4---2-|--2-2-2---2-2-2-|
E|4---4-----------|----------------|2---2---2-2---0-|--0-0-----------|

e|----4-----------|----0-----------|----------------|----------------|
B|----6(Not4)-----|----0-----------|----------------|----------------|
G|----6---------2-|----2-----------|--------------4-|--4-4---4-4-6---|
D|----6---------2-|----2-----------|2---2---2-2---4-|--4-4---4-4-6---|
A|----4---------0-|----0-----------|2---2---2-2---2-|--2-2---2-2-4---|
E|----4-----------|----------------|0---0---0-0-----|------------4---|

e|----------------|----------------|
B|----------------|----------------|
G|7-------------2-|--2-2-----------|
D|7-------------2-|--2-2-2---2-2---|
A|5-------------0-|--0-0-2---2-2---|
E|5---------------|------0---0-0---|


Verse x4 times

e|----------------|----------------|----------------|----------------|
B|----------------|----------------|----------------|----------------|
G|------6---4-----|--8---9---4-4---|--8---9---4-4---|--6---11--8-8\--|
D|------x---x-----|--x---x---x-x---|--x---x---x-x---|--x---x---x-x---|
A|4-4-4-4---2---7-|7-6---7---2-2-0-|0-6---7---2-2-2-|2-4---9---6-6\--|
E|----------------|----------------|----------------|----------------|


Chorus

e|----------------|
B|----------------|
G|----------------|
D|<     PH     >6-|
A|4-4-4-4-4-4-4-4-|
E|--------------4-|

e|----4-----------|----0-----------|----------------|----------------|
B|----4-----------|----0-----------|----------------|----------------|
G|----6---------2-|----2-----------|--------------4-|----4---4-4-4-4-|
D|----6---------2-|----2-----------|2---2---2-2---4-|----4---4-4-4-4-|
A|----4---------0-|----0-----------|2---2---2-2---2-|----2---2-2-2-2-|
E|----4-----------|----------------|0---0---0-0-----|----------------|

e|----4-----------|----0-----------|----------------|----------------|
B|----4-----------|----0-----------|----------------|----------------|
G|----6---------2-|----2-----------|----------------|------4---4-4-4-|
D|6---6---------2-|----2-----------|4---4---4-4---2-|--2-2-4---4-4-4-|
A|4---4---------0-|----0-----------|4---4---4-4---2-|--2-2-2---2-2-2-|
E|4---4-----------|----------------|2---2---2-2---0-|--0-0-----------|

e|----4-----------|----0-----------|----------------|----------------|
B|----6(Not4)-----|----0-----------|----------------|----------------|
G|----6---------2-|----2-----------|--------------4-|--4-4---4-4-6---|
D|----6---------2-|----2-----------|2---2---2-2---4-|--4-4---4-4-6---|
A|----4---------0-|----0-----------|2---2---2-2---2-|--2-2---2-2-4---|
E|----4-----------|----------------|0---0---0-0-----|------------4---|

e|----------------|----------------|----------------|----------------|
B|----------------|----------------|----------------|----------------|
G|7-------------2-|--2-2-----------|----------------|----------------|
D|7-------------2-|--2-2-2---2-2---|4---4---4---4---|5-5-5-5-77777777|
A|5-------------0-|--0-0-2---2-2---|4---4---4---4---|5-5-5-5-77777777|
E|5---------------|------0---0-0---|2---2---2---2---|3-3-3-3-55555555|


Bridge x2 times

e|----------------|----------------|----------------|---- -- -- -- -- ----|
B|----------------|----------------|----------------|---- -- -- -- -- ----|
G|----------------|----------------|----------------|---------------------|
D|6-9-6-----9-9-6-|--9-6-----9-9-6-|--9-6-----9-9-6-|--11 11 6- 11 12 12\-|
A|4-7-4-----7-7-4-|--7-4-----7-7-4-|--7-4-----7-7-4-|--9- 9- 4- 9- 10 10\-|
E|4-7-4-----7-7-4-|--7-4-----7-7-4-|--7-4-----7-7-4-|--9- 9- 4- 9- 10 10\-|


Interlude
[ Tab from: http://www.guitartabs.cc/tabs/h/hoobastank/the_reason_tab_ver_12.html ]
e|----------------|----------------|------ -- -- -- -- --|---------- -- -- --|
B|----------------|----------------|------ -- -- -- -- --|---------- -- -- --|
G|9---9---9-9-9-8-|----8---8-8-8---|11--11 11 11 11 11 10|----10--10 10 10 10|
D|x---x---x-x-x-x-|----x---x-x-x---|x---x- x- x- x- x- x-|----x---x- x- x- x-|
A|7---7---7-7-7-6-|----6---6-6-6---|9---9- 9- 9- 9- 9- 8-|----8---8- 8- 8- 8-|
E|5---5---5-5-5-4-|----4---4-4-4---|7---7- 7- 7- 7- 7- 9-|----9---9- 9- 9- 9-|

e|----------------|----------------|----------------|---- -- -- -- -- ----|
B|----------------|----------------|----------------|---- -- -- -- -- ----|
G|9---9---9-9-9-8-|----8---8-8-8---|----------------|---------------------|
D|x---x---x-x-x-x-|----x---x-x-x---|6-9-6-----9-9-6-|--11 11 6- 11 12 12\-|
A|7---7---7-7-7-6-|----6---6-6-6---|4-7-4-----7-7-4-|--9- 9- 4- 9- 10 10\-|
E|5---5---5-5-5-7-|----7---7-7-7---|4-7-4-----7-7-4-|--9- 9- 4- 9- 10 10\-|

e|----------------|----------------|------ -- -- -- -- --|---------- -- -- --|
B|----------------|----------------|------ -- -- -- -- --|---------- -- -- --|
G|9---9-9-9-9-9-8-|--8-8-8-8-8-8-8-|11--11 11 11 11 11 10|----10--10 10 10 10|
D|x---x-x-x-x-x-x-|--x-x-x-x-x-x-x-|x---x- x- x- x- x- x-|----x---x- x- x- x-|
A|7---7-7-7-7-7-6-|--6-6-6-6-6-6-6-|9---9- 9- 9- 9- 9- 8-|----8---8- 8- 8- 8-|
E|5---5-5-5-5-5-4-|--4-4-4-4-4-4-4-|7---7- 7- 7- 7- 7- 9-|----9---9- 9- 9- 9-|

e|----------------|---- -- -- -- -- ----|----------------|----------------|
B|----------------|---- -- -- -- -- ----|----------------|----------------|
G|9---9-9-9-9-9-11|--11 11 11 11 11 11\-|------6---4-----|--8---9---------|
D|x---x-x-x-x-x-x-|--x- x- x- x- x- x---|----------------|----------9-9\--|
A|7---7-7-7-7-7-9-|--9- 9- 9- 9- 9- 9-\-|4-4-4---4---4-7-|7---7---7-------|
E|5---5-5-5-5-5-7-|--7- 7- 7- 7- 7- 7-\-|----------------|----------------|


Chorus

e|----4-----------|----0-----------|----------------|----------------|
B|----6(Not4)-----|----0-----------|----------------|----------------|
G|----6---------2-|----2-----------|--------------4-|----4---4-4-6---|
D|----6---------2-|----2-----------|2---2---2-2---4-|----4---4-4-6---|
A|----4---------0-|----0-----------|2---2---2-2---2-|----2---2-2-4---|
E|----4-----------|----------------|0---0---0-0-----|----------------|

e|----4-----------|----0-----------|----------------|----------------|
B|----4-----------|----0-----------|----------------|----------------|
G|----6---------2-|----2-----------|----------------|------4---4-4-4-|
D|6---6---------2-|----2-----------|4---4---4-4---2-|--2-2-4---4-4-4-|
A|4---4---------0-|----0-----------|4---4---4-4---2-|--2-2-2---2-2-2-|
E|4---4-----------|----------------|2---2---2-2---0-|--0-0-----------|

e|----4-----------|----0-----------|----------------|----------------|
B|----6(Not4)-----|----0-----------|----------------|----------------|
G|----6---------2-|----2-----------|--------------4-|--4-4---4-4-6---|
D|----6---------2-|----2-----------|2---2---2-2---4-|--4-4---4-4-6---|
A|----4---------0-|----0-----------|2---2---2-2---2-|--2-2---2-2-4---|
E|----4-----------|----------------|0---0---0-0-----|------------4---|

e|----------------|----------------|
B|----------------|----------------|
G|7-------------2-|--2-2-----------|
D|7-------------2-|--2-2-2---2-2---|
A|5-------------0-|--0-0-2---2-2---|
E|5---------------|------0---0-0---|

e|----4-----------|----0-----------|----------------|----------------|
B|----4-----------|----0-----------|----------------|----------------|
G|----6---------2-|----2-----------|--------------4-|----4---4-4-4-4-|
D|6---6---------2-|----2-----------|2---2---2-2---4-|----4---4-4-4-4-|
A|4---4---------0-|----0-----------|2---2---2-2---2-|----2---2-2-2-2-|
E|4---4-----------|----------------|0---0---0-0-----|----------------|

e|----4-----------|----0-----------|----------------|----------------|
B|----4-----------|----0-----------|----------------|----------------|
G|----6---------2-|----2-----------|----------------|------4---4-4-4-|
D|6---6---------2-|----2-----------|4---4---4-4---2-|--2-2-4---4-4-4-|
A|4---4---------0-|----0-----------|4---4---4-4---2-|--2-2-2---2-2-2-|
E|4---4-----------|----------------|2---2---2-2---0-|--0-0-----------|

e|----4-----------|----0-----------|----------------|----------------|
B|----6(Not4)-----|----0-----------|----------------|----------------|
G|----6---------2-|----2-----------|--------------4-|--4-4---4-4-6---|
D|----6---------2-|----2-----------|2---2---2-2---4-|--4-4---4-4-6---|
A|----4---------0-|----0-----------|2---2---2-2---2-|--2-2---2-2-4---|
E|----4-----------|----------------|0---0---0-0-----|------------4---|

e|----------------|----------------|
B|----------------|----------------|
G|7-------------2-|--2-2-----------|
D|7-------------2-|--2-2-2---2-2---|
A|5-------------0-|--0-0-2---2-2---|
E|5---------------|------0---0-0---|

e|----------------|----------------|----------------|----------------|
B|----------------|----------------|----------------|----------------|
G|----------------|----------------|----------------|----------------|
D|6-9-6-----9-9-6-|--9-6-----9-9-6-|--9-6-----9-9-6-|--9-6-----------|
A|4-7-4-----7-7-4-|--7-4-----7-7-4-|--7-4-----7-7-4-|--7-4-----------|
E|4-7-4-----7-7-4-|--7-4-----7-7-4-|--7-4-----7-7-4-|--7-4-----------|

6.LUCKY

Open C# Tuning (C# G# C# F G# C#)

Intro
C#[-0-0---0--0---0-0---0--0--]
G#[-0-0---0--0---0-0---0--0--]
 F[-8-8--13-12---8-8--11-10--]
C#[-7-7--12-12---7-7--10--9--]
G#[-5-0--10--0---5-0---8--7--]
C#[-5-0--10--0---5-0---8--7--]

Verse1
C#[-0-0---0--0---0-0---0--0--]
G#[-0-0---0--0---0-0---0--0--]
 F[-8-8--13-12---8-8--11-10--]
C#[-7-7--12-12---7-7--10--9--]
G#[-5-0--10--0---5-0---8--7--]
C#[-5-0--10--0---5-0---8--7--]

Drums start here
C#[-0-0---0--0---0-0---0---0--0---0--]
G#[-0-0---0--0---0-0---0---0--0---0--]
 F[-8-8--13-12---8-8--11--13--7--10--]
C#[-7-7--12-12---7-7--10--12--7--10--]
G#[-5-0--10--0---5-0---8--10--7--10--]
C#[-5-0--10--0---5-0---8--10--7--10--]

Chorus1
C#[-0---0---0--0--]
G#[-0---0---0--0--]
 F[-8--13--11--6--]
C#[-7--12--10--5--]
G#[-0--10---8--3--]
C#[-0--10---8--3--]

C#[-0---0------0--0--0--]
G#[-0---0------0--0--0--]
 F[-8--13--4--11--6--8--]
C#[-7--12--1--10--5--7--]
G#[-0--10--1---8--3--0--]
C#[-0--10--1---8--3--0--]

Verse2
C#[-0-0---0--0---0-0---0--0--]
G#[-0-0---0--0---0-0---0--0--]
 F[-8-8--13-12---8-8--11-10--]
C#[-7-7--12-12---7-7--10--9--]
G#[-5-0--10--0---5-0---8--7--]
C#[-5-0--10--0---5-0---8--7--]

C#[-0-0---0--0---0-0---0---0--0---0--]
G#[-0-0---0--0---0-0---0---0--0---0--]
 F[-8-8--13-12---8-8--11--13--7--10--]
C#[-7-7--12-12---7-7--10--12--7--10--]
G#[-5-0--10--0---5-0---8--10--7--10--]
C#[-5-0--10--0---5-0---8--10--7--10--]

Chorus2
C#[-0---0---0--0--]
G#[-0---0---0--0--]
 F[-8--13--11--6--]
C#[-7--12--10--5--]
G#[-0--10---8--3--]
C#[-0--10---8--3--]

C#[-0---0------0--0---------]
G#[-0---0------0--0---------]
 F[-8--13--4--11--6-----13--]
C#[-7--12--1--10--5--7--12--]
G#[-0--10--1---8--3--7--10--]
C#[-0--10--1---8--3--7--10--]

Bridge
C#[------------------------]
G#[------------------------]
 F[-8----------------------]
C#[-0-xxx-5h7777h10-10-10--]
G#[-0-xxx-5h7777h10-10-10--]
C#[-0-xxx-5h7777h10-10-10--]

C#[---------------------]
G#[---------------------]
 F[---------------------]
C#[-0-xxx-4h5555h7-7-7--]
G#[-0-xxx-4h5555h7-7-7--]
C#[-0-xxx-4h5555h7-7-7--]

C#[-------------------------------]
G#[-------------------------------]
 F[-------7777-------13-13-13-13--]
C#[-8888--7777--8888h12-12-12-12--]
G#[-8888--7777--8888h10-10-10-10--]
C#[-8888--7777--8888h10-10-10-10--]

C#[------------------------]
G#[------------------------]
 F[-8----------------------]
C#[-0-xxx-5h7777h10-10-10--]
G#[-0-xxx-5h7777h10-10-10--]
C#[-0-xxx-5h7777h10-10-10--]

C#[---------------------]
G#[---------------------]
 F[---------------------]
C#[-0-xxx-4h5555h7-7-7--]
G#[-0-xxx-4h5555h7-7-7--]
C#[-0-xxx-4h5555h7-7-7--]

C#[-------------------------------]
G#[-------------------------------]
 F[-------7777-------13-13-13-13--]
C#[-8888--7777--8888h12-12-12-12--]
G#[-8888--7777--8888h10-10-10-10--]
C#[-8888--7777--8888h10-10-10-10--]

Instrumental
C#[---xxxx---xxxx---xxxx-------------------]
G#[---xxxx---xxxx---xxxx-------------------]
 F[-8-xxxx-8-xxxx-8-xxxx-------------------]
C#[-7-xxxx-7-xxxx-7-xxxx--5h7777h10-10-10--]
G#[---xxxx---xxxx---xxxx--5h7777h10-10-10--]
C#[---xxxx---xxxx---xxxx--5h7777h10-10-10--]

C#[---xxxx---xxxx---xxxx--------------------|
G#[---xxxx---xxxx---xxxx--------------------|
 F[-8-xxxx-8-xxxx-8-xxxx--------------------|
C#[-7-xxxx-7-xxxx-7-xxxx--55555-333---------|
G#[---xxxx---xxxx---xxxx--55555-333---------|
C#[---xxxx---xxxx---xxxx--55555-333---------|

Chorus3
C#[--0----------------]
G#[--0----------------]
 F[--0-sustain chord--]
C#[--0----------------]
G#[--0----------------]
C#[--0----------------]

C#[-0---0------0--0--]
G#[-0---0------0--0--]
 F[-8--13--4--11--6--]
C#[-7--12--1--10--5--]
G#[-0--10--1---8--3--]
C#[-0--10--1---8--3--]

Tag/Ending
C#[-0---0---0--0--]
G#[-0---0---0--0--]
 F[-8--13--11--6--]
C#[-7--12--10--5--]
G#[-0--10---8--3--]
C#[-0--10---8--3--]

C#[-0---0------0--0--0--]
G#[-0---0------0--0--0--]
 F[-8--13--4--11--6--8--]
C#[-7--12--1--10--5--7--]
G#[-0--10--1---8--3--0--]
C#[-0--10--1---8--3--0--]

7.FROM THE HEART

intro/verse

e------------------------------------------------------|
b------------------------------------------------------|
g------------------------------------------------------|
d-----4---4h6-----6---6h7-----7---7\6-----2---2h4------|
a------------------------------------------------------|
d-4-4---4-----4-4---4-----7-7---7-----2-2---2----------|    x8
  . .   .     . .   .     . .   .     . .   .

chorus

e------------------------------------------------------------------|
b------------------------------------------------------------------|
g------------------------------------------------------------------|
d-4-4-4-4-4-4-4-4-7-7-7-7-2-2-2-2-4-4-4-4-4-4-4-4-7-7-7-7-2-2-2-2--|
a-4-4-4-4-4-4-4-4-7-7-7-7-2-2-2-2-4-4-4-4-4-4-4-4-7-7-7-7-2-2-2-2--|
d-4-4-4-4-4-4-4-4-7-7-7-7-2-2-2-2-4-4-4-4-4-4-4-4-7-7-7-7-2-2-2-2--|

e-----------------------------------------------------------------|
b-----------------------------------------------------------------|
g-----------------------------------------------------------------|
D-0-0-0-0-0-0-0-0-7-7-7-7-2-2-2-2-0-0-0-0-0-0-0-0-7-7-7-7-2-2-2-2-|
A-0-0-0-0-0-0-0-0-7-7-7-7-2-2-2-2-0-0-0-0-0-0-0-0-7-7-7-7-2-2-2-2-|
D-0-0-0-0-0-0-0-0-7-7-7-7-2-2-2-2-0-0-0-0-0-0-0-0-7-7-7-7-2-2-2-2-|

then:
intro/verse x8
chorus x1

bridge

e-------------|
b-------------|
g-------------|
d-7-0-2-2-----|
a-7-0-2-2-----|
d-7-0-2-2-----|    x2

little riff

e-------|
b-------|
g-----9-|
d-6-7---|
a-------|
d-------|    x a lot

then:
intro/verse x2
chorus x1
little riff x?

8.THE REASON

CHORDS USED

	 Eadd9                     C#m	                A
    e|-7-|        e|-4-|        e|-5-------|
    B|-7-|        B|-5-|        B|-5-------|
    G|-10|        G|-6-|        G|-6-------|
    D|-10|        D|-6-|        D|-7-------|
    A|-7-|        A|-4-|        A|-7-------|
    E|-x-|        E|-x-|            E|-5---|

	   B		 Dsus		  E
    e|-7-|        e|-0-|                 e|-x---|
    B|-7-|        B|-3-|                 B|-0---|
    G|-8-|        G|-2-|                 G|-1---|
    D|-10|        D|-0-|                 D|-2---|
    A|-10|        A|-x-|        A|-2------------|
    E|-7-|        E|-x-|        E|-0------------|
INTRO

--------------------------|---------------------------------------------------|
--------------------------|-------9---------9---------9---------9-------------|
---9--9--9--9--9--9--9--9-|--9-11---8-9--11---8-9--11---8-9--11---8-----------|
--------------------------|---------------------------------------------------|
--------------------------|---------------------------------------------------|
--------------------------|---------------------------------------------------|


VERSE 1

    Eadd9               C#m		           Eadd9
I'm not a perfect person, There's many things I wish I didn't do

    Eadd9 		C#m		           A
But I continue learning,I never meant to do those things to you


    A			       B	           E..
And so I have to say before I go, That I just want you to know


A Guitar 2 can play this part in verse 1

-------------------------------------------|----------------------------|-----|
-------9---------9---------9---------9-----|----4-5-------4-5-----------|-----|
--9-11---8-9--11---8-9--11---8-9--11---8---|--6-----4--6------6-----x2--|-----|
-------------------------------------------|----------------------------|-----|
-------------------------------------------|----------------------------|-----|
-------------------------------------------|----------------------------|-----|


-------------------------------------------|----------------------------|-----|
-------9---------9---------9---------9-----|---4-5------4-5-------------|-----|
--9-11---8-9--11---8-9--11---8-9--11---8---|-6-----4--6-----6--------x2-|-----|
-------------------------------------------|----------------------------|-----|
-------------------------------------------|----------------------------|-----|
-------------------------------------------|----------------------------|-----|

			 --This part all time needed--
-----------------------------------------------11h12-11h12-11h12...-----------|
----4-5-------4-5-----4-5------4-5--------------------------------------------|
--6-----4--6-------6------4--6-----4--6---------------------------------------|
------------------------------------------------------------------------------|
------------------------------------------------------------------------------|
------------------------------------------------------------------------------|

 CHORUS

 E                       C#m		     A
I've found a reason for me, To change who I used to be

 A		B                      Eadd9
A reason to start over new, and the reason is you

VERSE 2

 Eadd9		  C#m			Eadd9
I'm sorry that I hurt you,It's something I must live with everyday

 Eadd9		      C#m		                	A
And all the pain I put you through,I wish that I could take it all away

   A                                 B	                                 E..
And be the one who catches all your tears, That's why I need you to hear...


A Guitar 2 can play this part in verse 2

-------------------------------------------|----------------------------|-----|
-------9---------9---------9---------9-----|----4-5-------4-5-----------|-----|
--9-11---8-9--11---8-9--11---8-9--11---8---|--6-----4--6------6-----x2--|-----|
-------------------------------------------|----------------------------|-----|
-------------------------------------------|----------------------------|-----|
-------------------------------------------|----------------------------|-----|


-------------------------------------------|----------------------------|-----|
-------9---------9---------9---------9-----|---4-5------4-5-------------|-----|
--9-11---8-9--11---8-9--11---8-9--11---8---|-6-----4--6-----6--------x2-|-----|
-------------------------------------------|----------------------------|-----|
-------------------------------------------|----------------------------|-----|
-------------------------------------------|----------------------------|-----|

			 --This part all time needed--
-----------------------------------------------11h12-11h12-11h12...-----------|
----4-5-------4-5-----4-5------4-5--------------------------------------------|
--6-----4--6-------6------4--6-----4--6---------------------------------------|
------------------------------------------------------------------------------|
------------------------------------------------------------------------------|
------------------------------------------------------------------------------|

CHORUS

 E                       C#m		     A
I've found a reason for me, To change who I used to be
 A		 B                     Eadd9
A reason to start over new, and the reason is you


OUTRO

      Dsus                                  A		       | "A" chord on outro part,
And that reason its you....And that reason its you..                   | can be changed for
      Dsus			      A		       | the basic "A" chord!
And that reason its you....And that reason its yo...                   |

VERSE 3

   Eadd9		  C#m	   	        A
I'm not a perfect person,I never meant to do those things to you

   A	                 B                              E
And so I have to say before I go,That I just want you to know


Guitar 2 Can play this on 3rd Verse


-------------------------------------------|----------------------------|-----|
-------9---------9---------9---------9-----|---4-5------4-5-------------|-----|
--9-11---8-9--11---8-9--11---8-9--11---8---|-6-----4--6-----6--------x2-|-----|
-------------------------------------------|----------------------------|-----|
-------------------------------------------|----------------------------|-----|
-------------------------------------------|----------------------------|-----|

			 --This part all time needed--
-----------------------------------------------11h12-11h12-11h12...-----------|
----4-5-------4-5-----4-5------4-5--------------------------------------------|
--6-----4--6-------6------4--6-----4--6---------------------------------------|
------------------------------------------------------------------------------|
------------------------------------------------------------------------------|
------------------------------------------------------------------------------|

 E                       C#m		     A
I've found a reason for me, To change who I used to be

 A			   B
A reason to start over new, and the reason is you

CHORUS

 E                       C#m		     A
I've found a reason for me, To change who I used to be

 A		   B                  ....Finish in E
A reason to start over new, and the reason is you

9.LET IT OUT

Tuning:Db Ab Db Gb Bb eb

Intro
eb|-------------------------------------|
Bb|-------------------------------------|
Gb|---------7-----------7-----------7---|
Db|-------5-----------5-----------5---5-| x3
Ab|---3/5---------3/5---------3/5-----3-|
Db|-0-----------0-----------0-----------|


eb|-------------------------------------|
Bb|-------------------------------------|
Gb|---------7-----------7---------------|
Db|-------5-----------5-----------5-5-5-|
Ab|---3/5---------3/5---------3/5---3-3-|
Db|-0-----------0-----------0-----------|


eb|-------------------------------|
Bb|-------------------------------|
Gb|-------------------------------|
Db|---7-------7-------7---------5-| x4
Ab|-0-5-5-0---5-5-0---5-5-0-3-0-3-|
Db|-0---5-0-----5-0-----5-0-3-0---|


Verse
eb|-------------------------------------|
Bb|-------------------------------------|
Gb|---------7-----------7-----------7---|
Db|-------5-----------5-----------5---5-| x3
Ab|---3/5---------3/5---------3/5-----3-|
Db|-0-----------0-----------0-----------|


2nd guitar riff
eb|------------------------------------------|
Bb|------------------------------------------|
Gb|------------------------------------------|
Db|------------------------------------------| x3
Ab|---------------------------------0-10---0-|
Db|---------------------------------0-10---0-|


eb|-------------------------------------|
Bb|-------------------------------------|
Gb|---------7-----------7---------------|
Db|-------5-----------5-----------5-5-5-|
Ab|---3/5---------3/5---------3/5---3-3-|
Db|-0-----------0-----------0-----------|


Chorus
eb|-------------------------------|-------------------------------|
Bb|-------------------------------|-------------------------------|
Gb|-------------------------------|-------------------------------|
Db|---7-------7-------7---------5-|-----------------------------5-|
Ab|-0-5-5-0---5-5-0---5-5-0-3-0-3-|-1-1-3-1---1-3-1---1-3-0-1-0-3-|
Db|-0---5-0-----5-0-----5-0-3-0---|-1-1-3-1---1-3-1---1-3-0-1-0---|


eb|-------------------------------|-------------------------------|
Bb|-------------------------------|-------------------------------|
Gb|-------------------------------|-------------------------------|
Db|---7-------7-------7---------5-|-3-------------5-------8-------|
Ab|-0-5-5-0---5-5-0---5-5-0-3-0-3-|-1-------------3-------6-------|
Db|-0---5-0-----5-0-----5-0-3-0---|-------------------------------|


Bridge
eb|-5555555555555555777777777777777788888888888888884444444444444444-|
Bb|-3333333333333333555555555555555566666666666666662222222222222222-|
Gb|------------------------------------------------------------------|
Db|------------------------------------------------------------------|
Ab|------------------------------------------------------------------|
Db|------------------------------------------------------------------|


eb|---------------------------------|-------------------------------|
Bb|---------------------------------|-------------------------------|
Gb|---------------------------------|-------------------------------|
Db|---------------------------------|---------------5---------------|
Ab|-0-------------2-----------------|-3-------------3---------------|
Db|-0-------------2-----------------|-3-----------------------------|


eb|---------------------------------|-------------------------------|
Bb|---------------------------------|-------------------------------|
Gb|---------------------------------|-------------------------------|
Db|---------------------------------|-------------------------------|
Ab|-0-------------2-----------------|-3-------------5---------------|
Db|-0-------------2-----------------|-3-------------5---------------|

10.UNAFFECTED

Intro

e|--------------------------------|--------------------------------|
B|--------------------------------|--------------------------------|
G|--------------------------------|--------------------------------|
D|101010------9-9-9-101010----9-9-|------------------------5\------|
A|------7-7-7-------------7-7-----|10----10\---------5-------------|
D|--------------------------------|------------5-------------------|


e|--------------------------------|------------------3-------------|
B|--------------------------------|------------6-----------6-------|
G|--------------------------------|------------5-------------------|
D|------------2h4---2---2-2-2-----|------3-----3-------------------|
A|------2-----2-----2---2-2-2-----|------3-----3-------------------|
D|2-----------2-----2---2-2-2-0-2-|3-----------3-------------------|


Verse x2 times

e|--------------------------------|--------------------------------|
B|--------------------------------|--------------------------------|
G|--------------------------------|--------------------------------|
D|101010------9-9-9-101010----9-9-|------------------------5\------|
A|------7-7-7-------------7-7-----|10----10\---------5-------------|
D|--------------------------------|------------5-------------------|


e|--------------------------------|--------------------------------|
B|--------------------------------|------------6-------------------|
G|--------------------------------|------------5-------------------|
D|------------2h4---2---2-2-2-----|------3-----3-------------------|
A|------2-----2-----2---2-2-2-----|------3-----3-------------------|
D|2-----------2-----2---2-2-2-0-2-|3-----------3-------------------|


Bridge

e|--------------------------------|-- ---------------- -------- ------|
B|--------------------------------|-- ------8/10--1010/12--1212/181818|
G|4/5-5-5-5/7---7-7/9---9-9/10--10|10/12--12---------- -------- ------|
D|--------------------------------|-- ------5/7---7-7 /9---9-9 /151515|
A|2/3-3-3-3/5---5-5/7---7-7/8---8-|8-/10--10---------- -------- ------|
D|--------------------------------|-- ---------------- -------- ------|


Chorus x2 times

e|0-----0-0-0-0---0-0-0-0-0-0-0-0-|0-----0-------------------------|
B|1-----1-1-1-0---0-0-0-0-0-0-0-0-|1-----1-------------------------|
G|2-----2-2-2-2---2-2-2-2-2-2-2-2-|0-----0-------------------------|
D|2-----2-2-2-2---2-2-2-2-2-2-2-2-|2-----2-----5-----------5-------|
A|0-----0-0-0-0---0-0-0-0-0-0-0-0-|0-----0-----5-----------5-------|
D|--------------------------------|------------5-----------5-------|


e|--------------------------------|--------------------------------|
B|--------------------------------|------------6-------------------|
G|--------------------------------|------------5-------------------|
D|2-------2---2h4---2---2-2-------|3-----------3-------------------|
A|2-------2---2-----2---2-2-------|3-----------3-------------------|
D|2-------2---2-----2---2-2---0-2-|3-----------3-------------------|


Verse x2 times

e|--------------------------------|--------------------------------|
B|--------------------------------|--------------------------------|
G|--------------------------------|--------------------------------|
D|101010------9-9-9-101010----9-9-|------------------------5\------|
A|------7-7-7-------------7-7-----|10----10\---------5-------------|
D|--------------------------------|------------5-------------------|


e|--------------------------------|--------------------------------|
B|--------------------------------|------------6-------------------|
G|--------------------------------|------------5-------------------|
D|------------2h4---2---2-2-2-----|------3-----3-------------------|
A|------2-----2-----2---2-2-2-----|------3-----3-------------------|
D|2-----------2-----2---2-2-2-0-2-|3-----------3-------------------|


Bridge

e|---------- -------------- ------|
B|---------- ------8/10--10/181818|
G|9/10--1010/12--12-------- ------|
D|---------- ------5/7---7 /151515|
A|7/8---8-8-/10--10-------- ------|
D|---------- -------------- ------|


Chorus x2 times

e|0-----0-0-0-0---0-0-0-0-0-0-0-0-|0-----0-------------------------|
B|1-----1-1-1-0---0-0-0-0-0-0-0-0-|1-----1-------------------------|
G|2-----2-2-2-2---2-2-2-2-2-2-2-2-|0-----0-------------------------|
D|2-----2-2-2-2---2-2-2-2-2-2-2-2-|2-----2-----5-----------5-------|
A|0-----0-0-0-0---0-0-0-0-0-0-0-0-|0-----0-----5-----------5-------|
D|--------------------------------|------------5-----------5-------|


e|--------------------------------|--------------------------------|
B|--------------------------------|------------6-------------------|
G|--------------------------------|------------5-------------------|
D|2-------2---2h4---2---2-2-------|3-----------3-------------------|
A|2-------2---2-----2---2-2-------|3-----------3-------------------|
D|2-------2---2-----2---2-2---0-2-|3-----------3-------------------|


Interlude

e|0---0---0---0---0---0---0---x-x-|3---3---3---3---3---3---3---3-3-|
B|0---0---0---0---0---0---0---x-x-|3---3---3---3---3---3---3---3-3-|
G|2---2---2---2---2---2---2---x-x-|0---0---0---0---0---0---0---0-0-|
D|2---2---2---2---2---2---2---x-x-|0---0---0---0---0---0---0---0-0-|
A|0---0---0---0---0---0---0---x-x-|2---2---2---2---2---2---2---2-2-|
D|--------------------------------|--------------------------------|


e|2---2---2---2---2---2---2---x-x-|1---1---1---x-x-3---3---3---x-x-|
B|3---3---3---3---3---3---3---x-x-|0---0---0---x-x-3---3---3---x-x-|
G|2---2---2---2---2---2---2---x-x-|2---2---2---x-x-0---0---0---x-x-|
D|0---0---0---0---0---0---0---x-x-|3---3---3---x-x-0---0---0---x-x-|
A|0---0---0---0---0---0---0---x-x-|3---3---3---x-x-2---2---2---x-x-|
D|--------------------------------|--------------------------------|


e|0---0---0---0---0---0---0---x-x-|3---3---3---3---3---3---3---3-3-|
B|0---0---0---0---0---0---0---x-x-|3---3---3---3---3---3---3---3-3-|
G|2---2---2---2---2---2---2---x-x-|0---0---0---0---0---0---0---0-0-|
D|2---2---2---2---2---2---2---x-x-|0---0---0---0---0---0---0---0-0-|
A|0---0---0---0---0---0---0---x-x-|2---2---2---2---2---2---2---2-2-|
D|--------------------------------|--------------------------------|


e|2---2---2---2---2---2---2---x-x-|
B|3---3---3---3---3---3---3---x-x-|
G|2---2---2---2---2---2---2---x-x-|
D|0---0---0---0---0---0---0---x-x-|
A|0---0---0---0---0---0---0---x-x-|
D|--------------------------------|


Bridge

e|--------------------------------|-------- ---------- -------- ------|
B|--------------------------------|8----/10\8/10--1010/12--1212/181818|
G|4/5---5-5/7---7-7/9---9-9/10--10|-------- ---------- -------- ------|
D|--------------------------------|5----/7-\5/7---7-7 /9---9-9 /151515|
A|2/3---3-3/5---5-5/7---7-7/8---8-|-------- ---------- -------- ------|
D|--------------------------------|-------- ---------- -------- ------|


Chorus x4 times

e|0-----0-0-0-0---0-0-0-0-0-0-0-0-|0-----0-------------------------|
B|1-----1-1-1-0---0-0-0-0-0-0-0-0-|1-----1-------------------------|
G|2-----2-2-2-2---2-2-2-2-2-2-2-2-|0-----0-------------------------|
D|2-----2-2-2-2---2-2-2-2-2-2-2-2-|2-----2-----5-----------5-------|
A|0-----0-0-0-0---0-0-0-0-0-0-0-0-|0-----0-----5-----------5-------|
D|--------------------------------|------------5-----------5-------|


e|--------------------------------|--------------------------------|
B|--------------------------------|------------6-------------------|
G|--------------------------------|------------5-------------------|
D|2-------2---2h4---2---2-2-------|3-----------3-------------------|
A|2-------2---2-----2---2-2-------|3-----------3-------------------|
D|2-------2---2-----2---2-2---0-2-|3-----------3-------------------|


Outro

e|0---0-0---0-0---0-0---0-0---0-0-|
B|1---1-1---1-0---0-0---0-0---0-0-|
G|2---2-2---2-2---2-2---2-2---2-2-|
D|2---2-2---2-2---2-2---2-2---2-2-|
A|0---0-0---0-0---0-0---0-0---0-0-|
D|--------------------------------|  x9 times


e|0-------------------------------|
B|1-------------------------------|
G|2-------------------------------|
D|2-------------------------------|
A|0-------------------------------|
D|--------------------------------|

11.NEVER THERE

Intro
-----

1|-----------------------------------------|
2|-----------------------------------------|
3|-----------------------------------------| Repeat
4|------12------10-------------------------|
5|----------------------12------10-------9-|
6|-0-12----0-10----0-10----0-10----10-12---|
  |p.m |  |p.m |  |p.m |  |p.m |  |p.m  |


1|--------------------------------------|
2|--------------------------------------|
3|--------------------------------------|
4|--------------------------------------|
5|-----10-----10-----8-----8-------12---|
6|-0-8----0-8----0-7---0-7---10-12------|
  |p.m|  |p.m|  |p.m| |p.m| |p.m  |


1|-----------------------------------------|
2|-----------------------------------------|
3|-----------------------------------------|
4|------12------10------13------12------10-|
5|-----------------------------------------|
6|-0-12----0-10----0-13----0-12----0-10----|
  |p.m |  |p.m |  |p.m |  |p.m |  |p.m |

Main Riff
---------

1|--------------------------------------|
2|--------------------------------------|
3|-----------------------------------12-| Repeat
4|-0-12-10-0-10-12-0-9-10-0-10-9-x-x----|
5|-0-12-10-0-10-12-0-9-10-0-10-9-x-x-10-|
6|-0-12-10-0-10-12-0-9-10-0-10-9-x-x----|

1|-------------------|
2|-------------------|
3|-10--10--10/12--12-|
4|-10--10--10/12--12-|
5|-8---8---8/-10--10-|
6|-8---8---8/-10--10-|

1|--------------------------------------|
2|--------------------------------------|
3|-----------------------------------12-|
4|-0-12-10-0-10-12-0-9-10-0-10-9-x-x----|
5|-0-12-10-0-10-12-0-9-10-0-10-9-x-x-10-|
6|-0-12-10-0-10-12-0-9-10-0-10-9-x-x----|

Verse
-----

1|-----------------------------------------|
2|-----------------------------------------|
3|-----------------------------------------| Repeat
4|------12------10-------------------------|
5|----------------------12------10-------9-|
6|-0-12----0-10----0-10----0-10----10-12---|
  |p.m |  |p.m |  |p.m |  |p.m |  |p.m  |


1|--------------------------------------|
2|--------------------------------------|
3|--------------------------------------|
4|--------------------------------------|
5|-----10-----10-----8-----8-------12---|
6|-0-8----0-8----0-7---0-7---10-12------|
  |p.m|  |p.m|  |p.m| |p.m| |p.m  |


1|-----------------------------------------|
2|-----------------------------------------|
3|-----------------------------------------|
4|------12------10------13------12------10-|
5|-----------------------------------------|
6|-0-12----0-10----0-13----0-12----0-10----|
  |p.m |  |p.m |  |p.m |  |p.m |  |p.m |

Chorus
------

1|--------------------------------------|
2|--------------------------------------|
3|-----------------------------------12-| Repeat
4|-0-12-10-0-10-12-0-9-10-0-10-9-x-x----|
5|-0-12-10-0-10-12-0-9-10-0-10-9-x-x-10-|
6|-0-12-10-0-10-12-0-9-10-0-10-9-x-x----|

1|-------------------|
2|-------------------|
3|-10--10--10/12--12-|
4|-10--10--10/12--12-|
5|-8---8---8/-10--10-|
6|-8---8---8/-10--10-|

1|---------------------------------------|
2|---------------------------------------|
3|---------------------------------------|
4|-0-12-10-0-10-12-0-9-10-0-10-9-x-x-x-x-|
5|-0-12-10-0-10-12-0-9-10-0-10-9-x-x-x-x-|
6|-0-12-10-0-10-12-0-9-10-0-10-9-x-x-x-x-|

1|--------------------------------------|
2|--------------------------------------|
3|-----------------------------------12-| Repeat
4|-0-12-10-0-10-12-0-9-10-0-10-9-x-x----|
5|-0-12-10-0-10-12-0-9-10-0-10-9-x-x-10-|
6|-0-12-10-0-10-12-0-9-10-0-10-9-x-x----|

1|-------------------|----------------|
2|-------------------|----------------|
3|-10--10--10/12--12-|-8--8--8/10--10-|
4|-10--10--10/12--12-|-8--8--8/10--10-|
5|-8---8---8/-10--10-|-6--6--6/-8---8-|
6|-8---8---8/-10--10-|-6--6--6/-8---8-|

Breakdown
---------

1|---------------------------------------|
2|---------------------------------------|
3|---------------------------------------| Repeat
4|-0-10-12-0-13-12-0-10-12-0-13-12-0-3-5-|
5|-0-10-12-0-13-12-0-10-12-0-13-12-0-3-5-|
6|-0-10-12-0-13-12-0-10-12-0-13-12-0-3-5-|

1|---------------------------------------|
2|---------------------------------------|
3|---------------------------------------|
4|-0-10-12-0-13-12-0-10-12-0-13-12-0-10--|
5|-0-10-12-0-13-12-0-10-12-0-13-12-0-10--|
6|-0-10-12-0-13-12-0-10-12-0-13-12-0-10--|

Bridge
------

1|-----------------------------------|----------------------------------------|
2|-----------------------------------|----------------------------------------|
3|-----------------------------------|----------------------------------------|
4|-----------------------------------|----------------------------------------|
5|-----10-----10-----8-----8-----8---|------12------12-----10-----10-----10---|
6|-0-8----0-8----0-7---0-7---0-7-----|-0-10----0-10----0-9----0-9----0-9------|

1|-----------------------------------|----------------------------------------|
2|-----------------------------------|----------------------------------------|
3|-----------------------------------|----------------------------------------| repeat but
4|-----------------------------------|-0-10-12-0-13-12-0-10-12-0-13-12-0-3----| replace 4th bar
5|-----10-----10-----8-----8-----8---|-0-10-12-0-13-12-0-10-12-0-13-12-0-3----| as below
6|-0-8----0-8----0-7---0-7---0-7-----|-0-10-12-0-13-12-0-10-12-0-13-12-0-3----|

1|---------------------------------------|
2|---------------------------------------|
3|---------------------------------------| Repeat
4|-0-10-12-0-13-12-0-10-12-0-13-12-0-3-5-|
5|-0-10-12-0-13-12-0-10-12-0-13-12-0-3-5-|
6|-0-10-12-0-13-12-0-10-12-0-13-12-0-3-5-|

1|-----------------------------------------|
2|-----------------------------------------|
3|-----------------------------------------|
4|------12------10------13------12------10-|
5|-----------------------------------------|
6|-0-12----0-10----0-13----0-12----0-10----|

Outro
-----

1|-----------------------------------------|
2|-----------------------------------------|
3|-----------------------------------------| Repeat
4|------12------10------13------12------10-|
5|-----------------------------------------|
6|-0-12----0-10----0-13----0-12----0-10----|

1|------------------------------------------|
2|------------------------------------------|
3|------------------------------------------|
4|------12------10------13------12------10\-|
5|--------------------------------------10\-|
6|-0-12----0-10----0-13----0-12----0-10-10\-|

12.DISAPPEAR

Intro *W/ Chorus FX and about 400 ms of Delay FX

E|--------------5\2--2---2------------------------------|
B|-------5--7------------3-----------6--5---------------|
G|-----------------------------------------5---5-----5--|
D|-----------------------------3--3------------5-----5--|
A|---------------------------------------------3-3-3-3--|
D|-0--0-------------------------------------------------|

E|------------------------3---------------------------|
B|--------6--5------------3--------1--3--3/5--3--3-3--|
G|--------------5---5-----5---------------------------|
D|-3--3-------------5-----5---------------------------|
A|------------------3-3-3-3---------------------------|
D|------------------------x---0--0--------------------|

Verse

E|--------------5\2--2---2---------------------------3--|
B|-------5--7------------3-----------6--5------------3--|
G|-----------------------------------------5---5-----5--|
D|-----------------------------3--3------------5-----5--|
A|---------------------------------------------3-3-3-3--|
D|-0--0----------------------------------------------x--|

E|------------------------3--------------|
B|--------6--5------------3--------1--3--|
G|--------------5---5-----5--------------|
D|-3--3-------------5-----5--------------|
A|------------------3-3-3-3--------------|
D|------------------------x---0--0-------|

1st ending         2nd ending
E|----------------| ---------------|
B|-3/5--3--3-3\---| -3/7--7--7-7\--|
G|---------------o| ---------------|
D|---------------o| ---------------|
A|----------------| ---------------|
D|----------------| ---------------|

Chorus *Little Distortion
-you can easily find strumming pattern
E|-2--------0----x-----x-----x-----2----3----2---|
B|-3--------1----8-----11----8-----3----3----3---|
G|-2--------0----7-----10----7-----2----2----2--o|
D|-0--------2----5-----8-----5-----0----0----0--o|
A|----------3----5-----8-----5-------------------|
D|---------------5-----8-----5-------------------|

Bridge *Distortion

E|-------------------------------------------------|
B|-------------------------------------------------|
G|-3-----5--------------------5-----------5--------|
D|-3-----5-----5--------3-----5-----1-----5-----5--|
A|-1-----3-----5--------3-----3-----1-----3-----5--|
D|-------------5--------3-----------1-----------5--|

E|-------------------------------------|
B|-------------------------------------|
G|----------------5-----------5--------|
D|-5--------3-----5-----1-----5-----5--|
A|-5--------3-----3-----1-----3-----5--|
D|-5--------3-----------1-----------5--|

Bridge Cont. *Acoustic

E|-2-------------0--------------2------0--------2--|
B|-3-------------1--------------3------3--------3--|
G|-2-------------0--------------2------2--------2--|
D|-0-------------2--------------0------0--------0--|
A|---------------3---------------------------------|
D|-------------------------------------------------|

Ending Chorus *Distortion


E|-------------------------------------|
B|-------------------------------------|
G|----------------5-----------5--------| Repeat till the end
D|-5--------3-----5-----1-----5-----5--|
A|-5--------3-----3-----1-----3-----5--|
D|-5--------3-----------1-----------5--|

the solo thing at 3:41

E|-10----------10----------------------------|
B|---------12------13~-----11~---10~----12---|
G|-----12------------------------------------|
D|-------------------------------------------|
A|-------------------------------------------|
D|-------------------------------------------|
Comments