Hoobastank - The Reason Chords & Tabs

 

The Reason Chords & Tabs

Hoobastank Chords & Tabs

Version: 11 Type: Tab 0 ratings
1 star 2 stars 3 stars 4 stars 5 stars
comments

The Reason Tab

   
HOOBASTANK - The Reason
Standard tuning, slightly distorted with sustain


Intro:
Guitar 1
e-------------------------------------|
b-------------------------------------|
g-------------------------------------|
d-------------------------------------|
a---7-7-7-7-7-7-7-7-7-7-7-7-7-7-7-7---|
e-------------------------------------|

Verse 1:
Guitar 1
e----------------------------------------------------------------------|
b----------------------------------------------------------------------|
g----------------------------------------------------------------------|
d----------------------------------------------------------------------|
a-7-7-7-7-7-7-7-7-7-7-7-7-7-7-7-7-7-7-7-7-7-7-7-7-7-7-7-7-7-7-7-7-7-7--|
e----------------------------------------------------------------------|
Guitar 2
e----------------------------------------------------------------------|
b------7-9-----7-9-----7-9-----7-9-----7-9-----7-9-----7-9-----7-9-----|
g--8h9-----8-9-----8-9-----8-9-----8-9-----8-9-----8-9-----8-9-----8-9-|
d----------------------------------------------------------------------|
a----------------------------------------------------------------------|
e----------------------------------------------------------------------|
                                                      I'm not a perfect

Guitar 1
e----------------------------------------------------------------------|
b----------------------------------------------------------------------|
g----------------------------------------------------------------------|
d----------------------------------------------------------------------|
a-4-4-4-4-4-4-4-4-4-4-4-4-4-4-4-4-4-4-4-4-4-4-4-4-4-4-4-4-4-4-4-4-4-4--|
e----------------------------------------------------------------------|
Guitar 2
e----------------------------------------------------------------------|
b------4-5-----4-5-----4-5-----4-5-----4-5-----4-5-----4-5-----4-5-----|
g--4h6-----4-6-----4-6-----4-6-----4-6-----4-6-----4-6-----4-6-----4-6-|
d----------------------------------------------------------------------|
a----------------------------------------------------------------------|
e----------------------------------------------------------------------|
person.                             There's many things I wish I didn't

Guitar 1
e----------------------------------------------------------------------|
b----------------------------------------------------------------------|
g----------------------------------------------------------------------|
d----------------------------------------------------------------------|
a-7-7-7-7-7-7-7-7-7-7-7-7-7-7-7-7-7-7-7-7-7-7-7-7-7-7-7-7-7-7-7-7-7-7--|
e----------------------------------------------------------------------|
Guitar 2
e----------------------------------------------------------------------|
b------7-9-----7-9-----7-9-----7-9-----7-9-----7-9-----7-9-----7-9-----|
g--8h9-----8-9-----8-9-----8-9-----8-9-----8-9-----8-9-----8-9-----8-9-|
d----------------------------------------------------------------------|
a----------------------------------------------------------------------|
e----------------------------------------------------------------------|
do.                                                      But I continue

Guitar 1
e----------------------------------------------------------------------|
b----------------------------------------------------------------------|
g----------------------------------------------------------------------|
d----------------------------------------------------------------------|
a-4-4-4-4-4-4-4-4-4-4-4-4-4-4-4-4-4-4-4-4-4-4-4-4-4-4-4-4-4-4-4-4-4-4--|
e----------------------------------------------------------------------|
Guitar 2
e----------------------------------------------------------------------|
b------4-5-----4-5-----4-5-----4-5-----4-5-----4-5-----4-5-----4-5-----|
g--4h6-----4-6-----4-6-----4-6-----4-6-----4-6-----4-6-----4-6-----4-6-|
d----------------------------------------------------------------------|
a----------------------------------------------------------------------|
e----------------------------------------------------------------------|
learning.                           I never meant to do those things to

Guitar 1
e-----------------------------------------------------------------------|
b-----------------------------------------------------------------------|
g-----------------------------------------------------------------------|
d-----------------------------------------------------------------------|
a-0-0-0-0-0-0-0-0-0-0-0-0-0-0-0-0-0-0-0-0-0-0-0-0-0-0-0-0-0-0-0-0-0-0-0-|
e-----------------------------------------------------------------------|
Guitar 2
e-----------------------------------------------------------------------|
b-------4-5-----4-5-----4-5-----4-5-----4-5-----4-5-----4-5-----4-5-----|
g---4h6-----4-6-----4-6-----4-6-----4-6-----4-6-----4-6-----4-6-----4-6-|
d-----------------------------------------------------------------------|
a-----------------------------------------------------------------------|
e-----------------------------------------------------------------------|
you.                                       And so I have to say before I

Guitar 1
e-----------------------------------------------------------------------|
b-----------------------------------------------------------------------|
g-----------------------------------------------------------------------|
d-----------------------------------------------------------------------|
a-2-2-2-2-2-2-2-2-2-2-2-2-2-2-2-2-2-2-2-2-2-2-2-2-2-2-2-2-2-2-2-2-2-2-2-|
e-----------------------------------------------------------------------|
Guitar 2
e-11h12p11h12p11h12p11h12p11h12p11h1211h12p11h12p11h12p11h12p11h12p11h12
b-----------------------------------------------------------------------|
g-----------------------------------------------------------------------|
d-----------------------------------------------------------------------|
a-----------------------------------------------------------------------|
e-----------------------------------------------------------------------|
go.                                              That I just want you to
Bridge 1:
Guitar 1 (let ring)
      e
e-----0-------------------------------|
b-----0-------------------------------|
g-----1-------------------------------|
d-----2-------------------------------|
a-----2-------------------------------|
e-----0-------------------------------|
Guitar 2 (let ring)
e-----12------------------------------|
b-------------------------------------|
g-------------------------------------|
d-------------------------------------|
a-------------------------------------|
e-------------------------------------|
know.          I've found a reason for

Guitar 1 (let ring)
      C6/a
e-----4-------------------------------|
b-----5-------------------------------|
g-----6-------------------------------|
d-----6-------------------------------|
a-----4-------------------------------|
e-----0-------------------------------|
Guitar 2 (let ring)
e-----16------------------------------|
b-------------------------------------|
g-------------------------------------|
d-------------------------------------|
a-------------------------------------|
e-------------------------------------|
me,            To change who I used to

Guitar 1
      Asus2
e-----0-------------------------------|
b-----0-------------------------------|
g-----2-------------------------------|
d-----2-------------------------------|
a-----0-------------------------------|
e-------------------------------------|
Guitar 2
e-----17------------------------------|
b-------------------------------------|
g-------------------------------------|
d-------------------------------------|
a-------------------------------------|
e-------------------------------------|
be.             A reason to start over

Guitar 1
      D6/B
e-----2-------------------------------|
b-----4-------------------------------|
g-----2-------------------------------|
d-----4-------------------------------|
a-----2-------------------------------|
e-------------------------------------|
Guitar 2
e-----14------------------------------|
b-------------------------------------|
g-------------------------------------|
d-------------------------------------|
a-------------------------------------|
e-------------------------------------|
new,                 and the reason is

Verse 2:
Guitar 1
e----------------------------------------------------------------------|
b----------------------------------------------------------------------|
g----------------------------------------------------------------------|
d----------------------------------------------------------------------|
a-7-7-7-7-7-7-7-7-7-7-7-7-7-7-7-7-7-7-7-7-7-7-7-7-7-7-7-7-7-7-7-7-7-7--|
e----------------------------------------------------------------------|
Guitar 2
e----------------------------------------------------------------------|
b------7-9-----7-9-----7-9-----7-9-----7-9-----7-9-----7-9-----7-9-----|
g--8h9-----8-9-----8-9-----8-9-----8-9-----8-9-----8-9-----8-9-----8-9-|
d----------------------------------------------------------------------|
a----------------------------------------------------------------------|
e----------------------------------------------------------------------|
you.                                              I'm sorry that I hurt

Guitar 1
e----------------------------------------------------------------------|
b----------------------------------------------------------------------|
g----------------------------------------------------------------------|
d----------------------------------------------------------------------|
a-4-4-4-4-4-4-4-4-4-4-4-4-4-4-4-4-4-4-4-4-4-4-4-4-4-4-4-4-4-4-4-4-4-4--|
e----------------------------------------------------------------------|
Guitar 2
e----------------------------------------------------------------------|
b------4-5-----4-5-----4-5-----4-5-----4-5-----4-5-----4-5-----4-5-----|
g--4h6-----4-6-----4-6-----4-6-----4-6-----4-6-----4-6-----4-6-----4-6-|
d----------------------------------------------------------------------|
a----------------------------------------------------------------------|
e----------------------------------------------------------------------|
you.                                    It's something I must live with

Guitar 1
e----------------------------------------------------------------------|
b----------------------------------------------------------------------|
g----------------------------------------------------------------------|
d----------------------------------------------------------------------|
a-7-7-7-7-7-7-7-7-7-7-7-7-7-7-7-7-7-7-7-7-7-7-7-7-7-7-7-7-7-7-7-7-7-7--|
e----------------------------------------------------------------------|
Guitar 2
e----------------------------------------------------------------------|
b------7-9-----7-9-----7-9-----7-9-----7-9-----7-9-----7-9-----7-9-----|
g--8h9-----8-9-----8-9-----8-9-----8-9-----8-9-----8-9-----8-9-----8-9-|
d----------------------------------------------------------------------|
a----------------------------------------------------------------------|
e----------------------------------------------------------------------|
everyday.                                    And all the pain I put you

Guitar 1
e----------------------------------------------------------------------|
b----------------------------------------------------------------------|
g----------------------------------------------------------------------|
d----------------------------------------------------------------------|
a-7-7-7-7-7-7-7-7-7-7-7-7-7-7-7-7-7-7-7-7-7-7-7-7-7-7-7-7-7-7-7-7-7-7--|
e----------------------------------------------------------------------|
Guitar 2
e----------------------------------------------------------------------|
b------7-9-----7-9-----7-9-----7-9-----7-9-----7-9-----7-9-----7-9-----|
g--8h9-----8-9-----8-9-----8-9-----8-9-----8-9-----8-9-----8-9-----8-9-|
d----------------------------------------------------------------------|
a----------------------------------------------------------------------|
e----------------------------------------------------------------------|
through.                                 I wish that I could take it all
Guitar 1
e-----------------------------------------------------------------------|
b-----------------------------------------------------------------------|
g-----------------------------------------------------------------------|
d-----------------------------------------------------------------------|
a-0-0-0-0-0-0-0-0-0-0-0-0-0-0-0-0-0-0-0-0-0-0-0-0-0-0-0-0-0-0-0-0-0-0-0-|
e-----------------------------------------------------------------------|
Guitar 2
e-----------------------------------------------------------------------|
b-------4-5-----4-5-----4-5-----4-5-----4-5-----4-5-----4-5-----4-5-----|
g---4h6-----4-6-----4-6-----4-6-----4-6-----4-6-----4-6-----4-6-----4-6-|
d-----------------------------------------------------------------------|
a-----------------------------------------------------------------------|
e-----------------------------------------------------------------------|
away.                                And be the one who catches all your
[ Tab from: http://www.guitartabs.cc/tabs/h/hoobastank/the_reason_tab_ver_11.html ]
Guitar 1
e-----------------------------------------------------------------------|
b-----------------------------------------------------------------------|
g-----------------------------------------------------------------------|
d-----------------------------------------------------------------------|
a-2-2-2-2-2-2-2-2-2-2-2-2-2-2-2-2-2-2-2-2-2-2-2-2-2-2-2-2-2-2-2-2-2-2-2-|
e-----------------------------------------------------------------------|
Guitar 2
e-11h12p11h12p11h12p11h12p11h12p11h1211h12p11h12p11h12p11h12p11h12p11h12
b-----------------------------------------------------------------------|
g-----------------------------------------------------------------------|
d-----------------------------------------------------------------------|
a-----------------------------------------------------------------------|
e-----------------------------------------------------------------------|
tears.                                          That's why I need you to
Bridge 2:
Guitar 1 (let ring)
      e
e-----0-------------------------------|
b-----0-------------------------------|
g-----1-------------------------------|
d-----2-------------------------------|
a-----2-------------------------------|
e-----0-------------------------------|
Guitar 2 (let ring)
e-----12------------------------------|
b-------------------------------------|
g-------------------------------------|
d-------------------------------------|
a-------------------------------------|
e-------------------------------------|
hear.          I've found a reason for

Guitar 1 (let ring)
      C6/a
e-----4-------------------------------|
b-----5-------------------------------|
g-----6-------------------------------|
d-----6-------------------------------|
a-----4-------------------------------|
e-----0-------------------------------|
Guitar 2 (let ring)
e-----16------------------------------|
b-------------------------------------|
g-------------------------------------|
d-------------------------------------|
a-------------------------------------|
e-------------------------------------|
me,            To change who I used to

Guitar 1
      Asus2
e-----0-------------------------------|
b-----0-------------------------------|
g-----2-------------------------------|
d-----2-------------------------------|
a-----0-------------------------------|
e-------------------------------------|
Guitar 2
e-----17------------------------------|
b-------------------------------------|
g-------------------------------------|
d-------------------------------------|
a-------------------------------------|
e-------------------------------------|
be.             A reason to start over
Guitar 1
      D6/B
e-----2-------------------------------|
b-----4-------------------------------|
g-----2-------------------------------|
d-----4-------------------------------|
a-----2-------------------------------|
e-------------------------------------|
Guitar 2
e-----14------------------------------|
b-------------------------------------|
g-------------------------------------|
d-------------------------------------|
a-------------------------------------|
e-------------------------------------|
new,                 and the reason is
Guitar 1 (let ring)
      Dsus2
e-----0-------------------------------|
b-----3-------------------------------|
g-----2-------------------------------|
d-----0-------------------------------|
a-----0-------------------------------|
e-----0-------------------------------|
Guitar 2 (let ring)
e-----17------------------------------|
b-------------------------------------|
g-------------------------------------|
d-------------------------------------|
a-------------------------------------|
e-------------------------------------|
You                  and the reason is
Guitar 1 (let ring)
      e
e-----0-------------------------------|
b-----0-------------------------------|
g-----1-------------------------------|
d-----2-------------------------------|
a-----2-------------------------------|
e-----0-------------------------------|
Guitar 2 (let ring)
e-----16------------------------------|
b-------------------------------------|
g-------------------------------------|
d-------------------------------------|
a-------------------------------------|
e-------------------------------------|
You,                 and the reason is

Guitar 1 (let ring)
      Dsus2                            e
e-----0--------------------------------0--|
b-----3--------------------------------0--|
g-----2--------------------------------1--|
d-----0--------------------------------2--|
a-----0--------------------------------2--|
e-----0--------------------------------0--|
Guitar 2 (let ring)
e-----17-------------------------------16-|
b-----------------------------------------|
g-----------------------------------------|
d-----------------------------------------|
a-----------------------------------------|
e-----------------------------------------|
You,                 and the reason is You

Verse 3:
Guitar 1 (lightly)
e----------------------------------------------------------------------|
b----------------------------------------------------------------------|
g----------------------------------------------------------------------|
d----------------------------------------------------------------------|
a-7-7-7-7-7-7-7-7-7-7-7-7-7-7-7-7-7-7-7-7-7-7-7-7-7-7-7-7-7-7-7-7-7-7--|
e----------------------------------------------------------------------|
Guitar 2
e----------------------------------------------------------------------|
b------7-9-----7-9-----7-9-----7-9-----7-9-----7-9-----7-9-----7-9-----|
g--8h9-----8-9-----8-9-----8-9-----8-9-----8-9-----8-9-----8-9-----8-9-|
d----------------------------------------------------------------------|
a----------------------------------------------------------------------|
e----------------------------------------------------------------------|
                                                      I'm not a perfect

Guitar 1
e----------------------------------------------------------------------|
b----------------------------------------------------------------------|
g----------------------------------------------------------------------|
d----------------------------------------------------------------------|
a-4-4-4-4-4-4-4-4-4-4-4-4-4-4-4-4-4-4-4-4-4-4-4-4-4-4-4-4-4-4-4-4-4-4--|
e----------------------------------------------------------------------|
Guitar 2
e----------------------------------------------------------------------|
b------4-5-----4-5-----4-5-----4-5-----4-5-----4-5-----4-5-----4-5-----|
g--4h6-----4-6-----4-6-----4-6-----4-6-----4-6-----4-6-----4-6-----4-6-|
d----------------------------------------------------------------------|
a----------------------------------------------------------------------|
e----------------------------------------------------------------------|
person.                             I never meant to do those things to

Guitar 1
e-----------------------------------------------------------------------|
b-----------------------------------------------------------------------|
g-----------------------------------------------------------------------|
d-----------------------------------------------------------------------|
a-0-0-0-0-0-0-0-0-0-0-0-0-0-0-0-0-0-0-0-0-0-0-0-0-0-0-0-0-0-0-0-0-0-0-0-|
e-----------------------------------------------------------------------|
Guitar 2
e-----------------------------------------------------------------------|
b-------4-5-----4-5-----4-5-----4-5-----4-5-----4-5-----4-5-----4-5-----|
g---4h6-----4-6-----4-6-----4-6-----4-6-----4-6-----4-6-----4-6-----4-6-|
d-----------------------------------------------------------------------|
a-----------------------------------------------------------------------|
e-----------------------------------------------------------------------|
you.                                       And so I have to say before I

Guitar 1
e-----------------------------------------------------------------------|
b-----------------------------------------------------------------------|
g-----------------------------------------------------------------------|
d-----------------------------------------------------------------------|
a-2-2-2-2-2-2-2-2-2-2-2-2-2-2-2-2-2-2-2-2-2-2-2-2-2-2-2-2-2-2-2-2-2-2-2-|
e-----------------------------------------------------------------------|
Guitar 2
e-11h12p11h12p11h12p11h12p11h12p11h1211h12p11h12p11h12p11h12p11h12p11h12
b-----------------------------------------------------------------------|
g-----------------------------------------------------------------------|
d-----------------------------------------------------------------------|
a-----------------------------------------------------------------------|
e-----------------------------------------------------------------------|
go.                                              That I just want you to know
Bridge 2:
Guitar 1 (let ring)
      e
e-----0-------------------------------|
b-----0-------------------------------|
g-----1-------------------------------|
d-----2-------------------------------|
a-----2-------------------------------|
e-----0-------------------------------|
Guitar 2 (let ring)
e-----12------------------------------|
b-------------------------------------|
g-------------------------------------|
d-------------------------------------|
a-------------------------------------|
e-------------------------------------|
know.          I've found a reason for

Guitar 1 (let ring)
      C6/a
e-----4-------------------------------|
b-----5-------------------------------|
g-----6-------------------------------|
d-----6-------------------------------|
a-----4-------------------------------|
e-----0-------------------------------|
Guitar 2 (let ring)
e-----16------------------------------|
b-------------------------------------|
g-------------------------------------|
d-------------------------------------|
a-------------------------------------|
e-------------------------------------|
me,            To change who I used to

Guitar 1
      Asus2
e-----0-------------------------------|
b-----0-------------------------------|
g-----2-------------------------------|
d-----2-------------------------------|
a-----0-------------------------------|
e-------------------------------------|
Guitar 2
e-----17------------------------------|
b-------------------------------------|
g-------------------------------------|
d-------------------------------------|
a-------------------------------------|
e-------------------------------------|
be.             A reason to start over


Guitar 1
      D6/B
e-----2-------------------------------|
b-----4-------------------------------|
g-----2-------------------------------|
d-----4-------------------------------|
a-----2-------------------------------|
e-------------------------------------|
Guitar 2
e-----14------------------------------|
b-------------------------------------|
g-------------------------------------|
d-------------------------------------|
a-------------------------------------|
e-------------------------------------|
new,                 and the reason is

Outro:
Guitar 1 (let ring)
      e
e-----0-------------------------------|
b-----0-------------------------------|
g-----1-------------------------------|
d-----2-------------------------------|
a-----2-------------------------------|
e-----0-------------------------------|
Guitar 2 (let ring)
e-----12------------------------------|
b-------------------------------------|
g-------------------------------------|
d-------------------------------------|
a-------------------------------------|
e-------------------------------------|
you.            I've found a reason to


Guitar 1 (let ring)
      C6/a
e-----4-------------------------------|
b-----5-------------------------------|
g-----6-------------------------------|
d-----6-------------------------------|
a-----4-------------------------------|
e-----0-------------------------------|
Guitar 2 (let ring)
e-----16------------------------------|
b-------------------------------------|
g-------------------------------------|
d-------------------------------------|
a-------------------------------------|
e-------------------------------------|
show,          A side of me you didn't

Guitar 1
      Asus2
e-----0-------------------------------|
b-----0-------------------------------|
g-----2-------------------------------|
d-----2-------------------------------|
a-----0-------------------------------|
e-------------------------------------|
Guitar 2
e-----17------------------------------|
b-------------------------------------|
g-------------------------------------|
d-------------------------------------|
a-------------------------------------|
e-------------------------------------|
know.          A reason for all that I

Guitar 1
      D6/B                             e
e-----2--------------------------------0---------|
b-----4--------------------------------0---------|
g-----2--------------------------------1---------|
d-----4--------------------------------2---------|
a-----2--------------------------------2---------|
e--------------------------------------0---------|
Guitar 2
e-----14-------------------------------10-9-7-9-|
b------------------------------------------------|
g------------------------------------------------|
d------------------------------------------------|
a------------------------------------------------|
e------------------------------------------------|
do,                  And the reason is you
Comments