Hoobastank - The Reason Chords & Tabs

 

The Reason Chords & Tabs

Hoobastank Chords & Tabs

Version: 3 Type: Bass Tab 0 ratings
1 star 2 stars 3 stars 4 stars 5 stars
comments

The Reason Bass Tab

im 80% sure this is how it goes.
Please rate this tab.

(Verse:1)
G:-------------------------------------------------------------------|
D:-2-2-2-2-2-2-2-2-2-2-2-2-2-2-2-2-----------------------------------|  x2
A:---------------------------------4-4-4-4-4-4-4-4-4-4-4-4-4-4-4-4---|
E:-------------------------------------------------------------------|

G:-------------------------------------------------------------------|
D:-------------------------------------------------------------------|
A:-------------------------------------------------------------------|
E:-5-5-5-5-5-5-5-5-5-5-5-5-5-5-5-5-7-7-7-7-7-7-7-7-7-7-7-7-7-7-7-7---|

(Chorus)
G:-------------------------------------------------------------------|
D:-------------------------------------------------------------------|
A:------------------------4--4-4-4-4-4-4-4-4-4-4---------------------|
E:-0--0-0-0-0-0-0-0-0-0-0--------------------------------------------|

G:-------------------------------------------------------------------|
D:-------------------------------------------------------------------|
A:-0--0-0-0-0-0-0-0-0-0-0-2--2-2-2-2-2-2-2-2-2-2-2-------------------|
E:-------------------------------------------------------------------|

(Verse:2)
G:-2-2-2-2-2-2-2-2-2-2-2-2-2-2-2-2-----------------------------------|
D:---------------------------------4-4-4-4-4-4-4-4-4-4-4-4-4-4-4-4---|  x2
A:-------------------------------------------------------------------|
E:-------------------------------------------------------------------|

G:-------------------------------------------------------------------|
D:-------------------------------------------------------------------|
A:-------------------------------------------------------------------|
E:-5-5-5-5-5-5-5-5-5-5-5-5-5-5-5-5-7-7-7-7-7-7-7-7-7-7-7-7-7-7-7-7---|

(Chorus)
G:-------------------------------------------------------------------|
D:-------------------------------------------------------------------|
A:------------------------4--4-4-4-4-4-4-4-4-4-4---------------------|
E:-0--0-0-0-0-0-0-0-0-0-0--------------------------------------------|
[ Tab from: http://www.guitartabs.cc/tabs/h/hoobastank/the_reason_btab_ver_3.html ]
G:-------------------------------------------------------------------|
D:-------------------------------------------------------------------|
A:-0--0-0-0-0-0-0-0-0-0-0-2--2-2-2-2-2-2-2-2-2-2---------------------|
E:-------------------------------------------------------------------|

(Bridge)
G:-------------------------------------------------------------------|
D:-0--0-0--0-0--0-0--0-----------------------------------------------|  x2
A:-------------------------------------------------------------------|
E:---------------------0--0-0--0-0--0-0--0---------------------------|

slight pause
begin playing again at 2:42

G:-------------------------------------------------------------------|
D:-------------------------------------------------------------------|
A:-------------------------------------------------------------------|
E:-5-5-5-5-5-5-5-5-5-5-5-5-5-5-5-5-7-7-7-7-7-7-7-7-7-7-7-7-7-7-7-7---|

(Chorus)
G:-------------------------------------------------------------------|
D:-------------------------------------------------------------------|
A:------------------------4--4-4-4-4-4-4-4-4-4-4---------------------|
E:-0--0-0-0-0-0-0-0-0-0-0--------------------------------------------|

G:-------------------------------------------------------------------|
D:-------------------------------------------------------------------|
A:-0--0-0-0-0-0-0-0-0-0-0-2--2-2-2-2-2-2-2-2-2-2---------------------|
E:-------------------------------------------------------------------|

(Chorus)
G:-------------------------------------------------------------------|
D:-------------------------------------------------------------------|
A:------------------------4--4-4-4-4-4-4-4-4-4-4---------------------|
E:-0--0-0-0-0-0-0-0-0-0-0--------------------------------------------|

G:-------------------------------------------------------------------|
D:-------------------------------------------------------------------|
A:-0--0-0-0-0-0-0-0-0-0-0-2--2-2-2-2-2-2-2-2-2-2---------------------|
E:-----------------------------------------------0~------------------|

Please rate and correct if needed
Comments