Hoobastank - The Reason Chords & Tabs

 

The Reason Chords & Tabs

Hoobastank Chords & Tabs

Version: 1 Type: Bass Tab 0 ratings
1 star 2 stars 3 stars 4 stars 5 stars
comments

The Reason Bass Tab

-------------------------------------------------------------------------------
			     The Reason - Hoobastank
-------------------------------------------------------------------------------

Tabbed By : DJ Berry
e-mail: splattski22@hotmail.com
This is my first tab it is an easy one so i think it works.
YOu can make any changes if i messed up.
i added key words where changes happen. 

Tuning: Standard

Verse 1(rest trough piano and guitar intro)

                              Person...do...learning...you...go
G|---------------------------------------------------------------------------|
D|-----Piano---guitar--------------------------------------------------------|
A|---------------------------------------------------------------------------|
E|--------------------12------9--------12-----9--------5------7--------------|

Chorus 1

        Know...me...be...new...you(starts 2nd verse)
G|---------------------------------------------------------------------------|
D|---------------------------------------------------------------------------|
A|-------------4-----0----2--------------------------------------------------|
E|------0-----------------------12-------------------------------------------|

Verse 2
[ Tab from: http://www.guitartabs.cc/tabs/h/hoobastank/the_reason_btab.html ]
        Hurt...Day...you...away...tears
G|---------------------------------------------------------------------------|
D|---------------------------------------------------------------------------|
A|---------------------------------------------------------------------------|
E|12----9-------12----9-----5-------7----------------------------------------|

Chorus 2

        Hear...me...be...new...you(starts bridge)
G|---------------------------------------------------------------------------|
D|-------------------------------0-------------------------------------------|
A|-------------4-----0----2--------------------------------------------------|
E|-------0-------------------------------------------------------------------|

Bridge

(from chorus)you...you...you...you
G|---------------------------------------------------------------------------|
D|-----------0------------0--------------------------------------------------|
A|---------------------------------------------------------------------------|
E|-----------------0------------0--------------------------------------------|

Verse 3

(rest 1st half) you...go
G|---------------------------------------------------------------------------|
D|---------------------------------------------------------------------------|
A|---------------------------------------------------------------------------|
E|---------------5-----7-----------------------------------------------------|

Chorus 3+(4)

    (you)..(show)...(Know)...(Do)  
    know...me........be.......new...        End 
G|---------------------------------------------------------------------------|
D|---------------------------------------------------------------------------|
A|----------4---------0--------2---------------------------------------------|
E|----0---------------------------------------0-(let ring)-------------------|
Comments