Hoobastank - Running Away Chords & Tabs

 

Running Away Chords & Tabs

Hoobastank Chords & Tabs

Version: 4 Type: Tab 0 ratings
1 star 2 stars 3 stars 4 stars 5 stars
comments

Running Away Tab

   
Artist:Hoobastank
Song  :Running Away
Tabbed by:AC

Drop d

Intro: (Acoustic)
|---------------------------------------------------------------------------------------|
|---------------------------------------------------------------------------------------|
|--9--9--9-9---9-9-9-9----9--9--9--9---9-9-9-9---------------------------------5-5-5-4--|
|-10-10-10-7---9-9-9-9---10-10-10--7---9-9-9-9---5-5-5-7---9-9-9-9---3-3-3-5---3-3-3-3--|
|--7--7--7-7---7-7-7-7----7--7--7--7---7-7-7-7---5-5-5-5---5-5-5-5---3-3-3-3---3-3-3-3--|
|--7--7--7-7---7-7-7-7----7--7--7--7---7-7-7-7---5-5-5-5---5-5-5-5---3-3-3-3---3-3-3-3--|

2nd time through:(Acoustic)
|--------------------------------------------------------------------0--|
|--------------------------------------------------------------------1--|
|--9--9--9-9---9-9-9-9----9--9--9--9---9-9-9-9-----------------------0--|
|-10-10-10-7---9-9-9-9---10-10-10--7---9-9-9-9---5-5-5-7---9-9-9-9---3--|
|--7--7--7-7---7-7-7-7----7--7--7--7---7-7-7-7---5-5-5-5---5-5-5-5---3--|
|--7--7--7-7---7-7-7-7----7--7--7--7---7-7-7-7---5-5-5-5---5-5-5-5---3--|

Verse: (distortion)
|---------------------------------------------------------------------------------------|
|---------------------------------------------------------------------------------------|
|--9--9--9-9---9-9-9-9----9--9--9--9---9-9-9-9---------------------------------5-5-5-4--|
|-10-10-10-7---9-9-9-9---10-10-10--7---9-9-9-9---5-5-5-7---9-9-9-9---3-3-3-5---3-3-3-3--|
|--7--7--7-7---7-7-7-7----7--7--7--7---7-7-7-7---5-5-5-5---5-5-5-5---3-3-3-3---3-3-3-3--|
|--7--7--7-7---7-7-7-7----7--7--7--7---7-7-7-7---5-5-5-5---5-5-5-5---3-3-3-3---3-3-3-3--|

Chorus x 2
|-------------------|
|-------------------|
|--------------5----|
|-7-9-10-0-3-3-5-5--|
|-7-9-10-0-3-3-3-5--|
|-7-9-10-0-3-3---5--|

After Chorus:
|--------0--------|
|----1-0---0-1----|
|--2-----------2--|
|-----------------|
|-----------------|
|-----------------|

Verse
Chorus
[ Tab from: http://www.guitartabs.cc/tabs/h/hoobastank/running_away_tab_ver_4.html ]
After Chorus:
	x 4		 x 4		    x 4			  x 1		      x 2
|--------0--------|---------0-------|--------0--------|-------0-----------0----|---------0-------|
|----1-0---0-1----|-------0---0-----|----1-0---0-1----|--3--3---3-----3-3---3--|-------0---0-----|
|--2-----------2--|-----0-------0---|--2-----------2--|-----------2------------|-----0-------0---|
|-----------------|---2-------------|-----------------|------------------------|---2-------------| x 2
|-----------------|-----------------|-----------------|------------------------|-----------------|
|-----------------|-----------------|-----------------|------------------------|-----------------|
?help on the last bar

Bridge:
|--------------------------------------------------------------------------|
|--------------------------------------------------------------------------|
|--------------------------------------------------------------------------|
|-x-x-x--7-7-7---7-7-7---2-2-2---x-x-x---2-2-2---7-7-7---7-7-7---0-3-5-----|
|-x-x-x--7-7-7---7-7-7---2-2-2---x-x-x---2-2-2---7-7-7---7-7-7---0-3-5-----|
|-x-x-x--7-7-7---7-7-7---2-2-2---x-x-x---2-2-2---7-7-7---7-7-7---0-3-5-----|

Chorus x 4

verse 1:
i don't want you
to give it all up
and leave your own life collecting dust
and i don't want you to feel sorry for me
you never gave us a chance to be
and i don't need you
to be by my side
to tell me that everything's alright
i just wanted you to tell me the truth
you know i'd do that for you.

chorus: why are you running away?

verse 2:
cause i did enough
to show you that i
was willing to give and sacrifice
and i was the one who was lifting you up
when you thought your life had had enough
and when i get close
you turn away
there's nothing that i can do or say
so now i need you
to tell me the truth
you know i'd do that for you

chorus: why are you running away?

bridge:
is it me? is it you? nothing that, i can do,
to make you, change your mind
is it me? is it you? nothing that, i can do
is it a, waste of time?

last chorus:
so why are you running away?
(what is it i have to say)
why are you running away?
(to make you admit you're afraid?)
why are you running away?
Comments