Hoobastank - Running Away Chords & Tabs

 

Running Away Chords & Tabs

Hoobastank Chords & Tabs

Version: 14 Type: Tab 0 ratings
1 star 2 stars 3 stars 4 stars 5 stars
comments

Running Away Tab

                             Hoobastank - Running Away

Tabbed by: Joe
Email: shawj13@yahoo.com

Tuning: Standard

FIGURE OUT THE STRUMMING ON YOUR OWN


INTRO
e|----------------------------------------0-|
B|-1---0---1---0------------------1---1---0-|
G|-2---2---2---2---------1---4----1---2---0-|
D|-2---2---2---2-----0---0---0----3---3---3-|
A|-0---0---0---0-----2---2---2----3---3---3-|
E|-------------------3---3---3----1---1---1-|
[ Tab from: http://www.guitartabs.cc/tabs/h/hoobastank/running_away_tab_ver_14.html ]
VERSE
e|------------------------------------------|
B|------------------------------------------|
G|-5--4---4--2---4--2--5--4-----------------|
D|-7--7---5--5---3--3--3--3-----------------|
A|------------------------------------------|
E|------------------------------------------|

CHORUS
e|---------3-------1---3---3---------------|
B|-0-------3-------1---3---3---------------|
G|-2---4---5---0---2---5---4---------------|
D|-2---5---5---2---3---5---5---------------|
A|-0---2---3---2---3---3---5---------------|
E|---------3---0---1---3---3---------------|

e|----------0------------------------------|
B|-------0----0----------------------------|
G|-----2--------2--------------------------|
D|---2-----------2-------------------------|
A|-0---------------0-----------------------|
E|-----------------------------------------|
Comments