Hoobastank - Running Away Chords & Tabs

 

Running Away Chords & Tabs

Hoobastank Chords & Tabs

Version: 10 Type: Tab 0 ratings
1 star 2 stars 3 stars 4 stars 5 stars
comments

Running Away Tab

Ive tabbed out this whole song perfectly, but im too lazy  post it because version 3 
is basically what i figured out with a few minor mistakes which im gonna correct.

Everyone is posting that cool Interlude like this
--------0-------
------0---0-----
----5-------5---
--7-----------7-
----------------
----------------  

I figured it out using the same chord (am) exept it sounds fuller this way:
--------0-------
----------0-----
-----5------5---
---7------------
-0--------------
---------------- the second part of it is

--------0-------
----------0-----
-----5------5---
---7------------
-7--------------
---------------- Its fast and tricky but once you get it going it sounds cool.

[ Tab from: http://www.guitartabs.cc/tabs/h/hoobastank/running_away_tab_ver_10.html ]
the only other thing is the part after the intro goes like this:
---------------------------------------------
---------------------------------------------
---------------------------------------------
-7-7-7-7--9-9-9-9--10-10-10-10--12-12-12-12--
-7-7-7-7--9-9-9-9--10-10-10-10--12-12-12-12--
-7-7-7-7--9-9-9-9--10-10-10-10--12-12-12-12--

---------------------------------------------
---------------------------------------------
---------------------------------------------
-3-3-3-3-3-3-3-3--5-5-5-5-5-5----------------
-3-3-3-3-3-3-3-3--3-3-3-2-2-2----------------
-3-3-3-3-3-3-3-3-----------------------------


Thats about it. If you want my full version which is just Version 3 plus what I 
just wrote e-mail me at a7ender18@hotmail.com

peace.
Comments