Hoobastank - Right Before Your Eyes Chords & Tabs

 

Right Before Your Eyes Chords & Tabs

Hoobastank Chords & Tabs

Version: 2 Type: Tab 0 ratings
1 star 2 stars 3 stars 4 stars 5 stars
comments

Right Before Your Eyes Tab

   
Band - Hoobastank
Song - Right Before Your Eyes
Album - DareDevil Soutrack
Tuning - Drop D

Lots of parts to this song, but its fairly easy to play


Verse - Part 1

"When the Door Shuts..."

e:----------------------:
b:-9--------------------:
g:-8------6------9------:
d:-6-x24--6-x12--7------:
a:--------4------7--x12-:
D:---------------7------:

Verse Part 2

"I'm Going to Learn..."

e:------------------------:
b:------------------------:
g:-8-------11-----6-------:
d:-6-------9------4-------:
a:-6--x12--9--x6--4--x6---:
D:-6-------9------4-------:

Pre-Chorus

"For Chances I Don't Take..."

e:---------------:
b:-10-----12-----:
g:-9------11-----:
d:-7------9------:
a:-7--x6--9--x6--:
D:-7------9------:


Chorus

"Right Before Your Eyes..."
[ Tab from: http://www.guitartabs.cc/tabs/h/hoobastank/right_before_your_eyes_tab_ver_2.html ]
e:------------------------------------------------: Work Out the rymth
b:------------------------------------------------:
g:-8-8-8-8-8-8/11-11-11/6-6-6-6-6-6-6-2-2-2-6-6-6-:
d:-6-6-6-6-6-6/9--9--9-/4-4-4-6-6-6-6-2-2-2-4-4-4-:  X 2
a:-6-6-6-6-6-6/9--9--9-/4-4-4-4-4-4-4-0-0-0-4-4-4-:
D:-6-6-6-6-6-6/9--9--9-/4-4-4---------------4-4-4-:


After Chorus 2/Pre-Bridge

"Changes..........."
e:--------------:
b:--------7-7-7-:
g:-4------6-6-6-:
d:-4------4-4-4-:
a:-2-x12--4-4-4-:
D:--------4-4-4-:


Bridge

"Yeah!!!"

e:-----------------------------------------------:
b:-----------------------------------------------:
g:---13-13-13---11-11-11----13-13-13-------------:
d:-6-x--x--x--8--x--x--x--9-x--x--x--11-11-11-11-:   x4
a:-6-11-11-11-8--9--9--9--9-11-11-11-11-11-11-11-:
D:-6----------8-----------9----------11-11-11-11-:


Breakdown Before Final Chorus

e:-----------------------------:
b:-----------------------------:
g:-6-6-6-6-6-6-----------------:
d:-6-6-6-6-6-6-2-2-2-2/4-4-4-4-:
a:-4-4-4-4-4-4-2-2-2-2/4-4-4-4-:
D:-------------2-2-2-2/4-4-4-4-:

back to Chorus x 4
Bridge x 2

Ends on
e:------:
b:------:
g:-13~~~:
d:-11~~~:
a:-11~~~:
d:-11~~~:


There You Go.........Any Corrections.....Doms_BeerCo@Hotmail.com
Comments