Hoobastank - Right Before Your Eyes Chords & Tabs

 

Right Before Your Eyes Chords & Tabs

Hoobastank Chords & Tabs

Version: 1 Type: Tab 0 ratings
1 star 2 stars 3 stars 4 stars 5 stars
comments

Right Before Your Eyes Tab

   
-------------------------------------------------------------------------------
                 RIGHT BEFORE YOUR EYES - Hoobastank
-------------------------------------------------------------------------------

By:  Gary(incuthrice07@gawab.com)

DROP C# TUNING!!!

... - palm mute
>   - strumming not defined
~   - let ring out


Intro/Verses:  (strumming not defined...I'm not sure on this part)
D#|--------------------------------------------------------------------------|
D#|-5>---6>------------------------------------------------------------------|
F#|-7>---7>---7>-------------------------------------------------------------|
C#|-7>---0>---8>-------------------------------------------------------------|
G#|--------------------------------------------------------------------------|
C#|--------------------------------------------------------------------------|
    ............

Pre Chorus:
D#|--------------------------------------------------------------------------|
D#|--------------------------------------------------------------------------|
F#|-------------------5--------------------------------------------------5---|
C#|-7-----------------5---------------5-----------------7----------------5---|
G#|-7-----------------3---------------5-----------------7----------------3---|
C#|-7---------------------------------5-----------------7--------------------|
          And I know there will be mistakes that I will make, but I know none

Pre Chorus Cont'd:
D#|--------------------------------------------------------------------------|
D#|--------------------------------------------------------------------------|
F#|-------------------------------3------5-----------------------------------|
C#|----------------5--------------3------5-----------------------------------|
G#|----------------5--------------1------3-----------------------------------|
C#|----------------5---------------------------------------------------------|
   are worst than chances I don't take, take.

Chorus:
D#|--------------------------------------------------------------------------|
D#|--------------------------------------------------------------------------|
F#|-------------------5-----------------------3------------------------------|
C#|-7-----------------5--------5-----0--------3----5----7--------------------|
G#|-7-----------------3--------5-----0--------1----5----7--------------------|
C#|-7--------------------------5-----0-------------5----7--------------------|
        Right before your eyes I am changing, changing.    You laugh on the

Chorus Cont'd:
D#|--------------------------------------------------------------------------|
D#|--------------------------------------------------------------------------|
F#|-5---------------------3--------------------------------------------------|
C#|-5------5-----0--------3----5---------------------------------------------|
G#|-3------5-----0--------1----5---------------------------------------------|
C#|--------5-----0-------------5---------------------------------------------|
   inside, I am changing, changing.

Repeat Verse
[ Tab from: http://www.guitartabs.cc/tabs/h/hoobastank/right_before_your_eyes_tab.html ]
Repeat Pre Chorus

Repeat Chorus

End of 2nd Chorus:  "changing..."
D#|--------------------------------------------------------------------------|
D#|--------------------------------------------------------------------------|
F#|-------------------------5-5-5-5-5-5--------------------------------------|
C#|-3-3-3-3-3-3-3-3-3-3-3-3-5-5-5-5-5-5-5-5-5-5-5-5--------------------------|
G#|-3-3-3-3-3-3-3-3-3-3-3-3-3-3-3-3-3-3-5-5-5-5-5-5--------------------------|
C#|-3-3-3-3-3-3-3-3-3-3-3-3-------------5-5-5-5-5-5--------------------------|

Bridge:  (3x)
D#|--------------------------------------------------------------------------|
D#|--------------------------------------------------------------------------|
F#|------14-14-14-------12-12-12----------14-14-14---------------------------|
C#|-------x--x--x--------x--x--x-----------x--x--x-0--0--0-------------------|
G#|7-7-7-12-12-12-9-9-9-10-10-10-10-10-10-12-12-12-0--0--0-------------------|
C#|7-7-7----------9-9-9----------10-10-10----------0--0--0-------------------|

Bridge Cont'd:
D#|--------------------------------------------------------------------------|
D#|--------------------------------------------------------------------------|
F#|------14-14-14-------12-12-12----------14-14-14---------------------------|
C#|-------x--x--x--------x--x--x-----------x--x--x-5-5-5-5-5-5-0-0-0-0-0-0-0-|
G#|7-7-7-12-12-12-9-9-9-10-10-10-10-10-10-12-12-12-5-5-5-5-5-5-0-0-0-0-0-0-0-|
C#|7-7-7----------9-9-9----------10-10-10----------5-5-5-5-5-5-0-0-0-0-0-0-0-|

Bridge Cont'd:
D#|--------------------------------------------------------------------------|
D#|--------------------------------------------------------------------------|
F#|--------------------------------------------------------------------------|
C#|0-0-0-0-0-3-3-3-3-3-3-5-5-5-5-5-5-----------------------------------------|
G#|0-0-0-0-0-3-3-3-3-3-3-5-5-5-5-5-5-----------------------------------------|
C#|0-0-0-0-0-3-3-3-3-3-3-5-5-5-5-5-5-----------------------------------------|

Repeat Chorus:  (2x)

Ending:  "Right before your eyes..."
D#|--------------------------------------------------------------------------|
D#|--------------------------------------------------------------------------|
F#|------14-14-14-------12-12-12----------14-14-14---------------------------|
C#|-------x--x--x--------x--x--x-----------x--x--x-0--0--0-------------------|
G#|7-7-7-12-12-12-9-9-9-10-10-10-10-10-10-12-12-12-0--0--0-------------------|
C#|7-7-7----------9-9-9----------10-10-10----------0--0--0-------------------|

Ending Cont'd:
D#|--------------------------------------------------------------------------|
D#|--------------------------------------------------------------------------|
F#|------14-14-14-------12-12-12----------14-14-14---------------------------|
C#|-------x--x--x--------x--x--x-----------x--x--x-0~------------------------|
G#|7-7-7-12-12-12-9-9-9-10-10-10-10-10-10-12-12-12-0~------------------------|
C#|7-7-7----------9-9-9----------10-10-10----------0~------------------------|

===============================================================================
Comments