Hoobastank - Remember Me Chords & Tabs

 

Remember Me Chords & Tabs

Hoobastank Chords & Tabs

Version: 3 Type: Tab 0 ratings
1 star 2 stars 3 stars 4 stars 5 stars
comments

Remember Me Tab

   
-------------------------------------------------------------------------------
			     Remember Me - Hoobastank
-------------------------------------------------------------------------------
Tabbed by: gecko753
Email: gecko753@msn.com
(its my first tab sry... but i know its correct)

Tuning: Dropped-D

Intro:
theres about 23 secs of random sounds made by drums, and some picking above the neck

Verse:
e|---------------------------------------------------------------------------|
B|---------------------------------------------------------------------------|
G|---10-10-10-10-10-10-10----10-10-10-10-10-10-10-----9--9--9--9--9--9--9----|
D|----7--7--7--7--7--7--7-----7--7--7--7--7--7--7-----7--7--7--7--7--7--7----|
A|---------------------------------------------------------------------------|
E|---------------------------------------------------------------------------|

e|---------------------------------------------------------------------------|
B|----------------------------8--8--8--8--8--8--8-----8--8--8--8--8--8--8----|
G|----9--9--9--9--9--9--9-----7--7--7--7--7--7--7-----7--7--7--7--7--7--7----|
D|----7--7--7--7--7--7--7-----5--5--5--5--5--5--5-----5--5--5--5--5--5--5----|
A|---------------------------------------------------------------------------|
E|---------------------------------------------------------------------------|
[ Tab from: http://www.guitartabs.cc/tabs/h/hoobastank/remember_me_tab_ver_3.html ]
                          |- - -First Ending- - -|- - - Second Ending - - - -|
e|---------------------------------------------------------------------------|
B|----6--6--6--6--6--6--6-----5--5-----5--5--5--5----------------------------|
G|----5--5--5--5--5--5--5-----5--5-----5--5--5--5--------5--5----------------|
D|----3--3--3--3--3--3--3--------------------------------5--5----------------|
A|-------------------------3-----3-----------3-----------3--3----------------|
E|----------------------------------------------------0--5--5----------------|


Pre-Chorus x2
e|---------------------------------------------------------------------------|
B|---------------------------------------------------------------------------|
G|---------------------------5/7\5-------------------------------5/7\5-------|
D|---------------------------5/7\5-------------------------------5/7\5-------|
A|-0-12-10-0-10-12-0---3-5---3/5\3-5---0-12-10-0-10-12-0---3-5---3/5\3-3-----|
E|-0-12-10-0-10-12-0---3-5---------5---0-12-10-0-10-12-0---3-5---------3-----|


Chorus (w/ half time feel) x2
e|---------------------------------------------------------------------------|
B|---------------------------------------------------------------------------|
G|-----------------------------------------5-5---------5-/-------------------|
D|-0-0---------0-0---------0---3-3---------5-5---------5-/----10---10--------|
A|-0-0---------0-0---------0---3-3---------3-3---------3-/-----8----8--------|
E|-0-0-3-3-3-3-0-0-3-3-3-3-0---3-3-5-5-5-5-----5-5-5-5---------8----8--------|
       + + + +     + + + +         + + + +     + + + +

e|---------------------------------------|
B|---------------------------------------|
G|---------------------------------------|
D|--12---12-12---0------0------0---------|
A|--10---10-10---0--10--0--10--0--10-----|
E|--10---10-10---0--10--0--10--0--10-----|

then repeat the whole thing and ur done.


| /  slide up
| \  slide down
| h  hammer-on
| p  pull-off
| ~  vibrato
| +  harmonic
| x  Mute note
===============================================================================
Comments