Hoobastank - Remember Me Chords & Tabs

 

Remember Me Chords & Tabs

Hoobastank Chords & Tabs

Version: 2 Type: Tab 0 ratings
1 star 2 stars 3 stars 4 stars 5 stars
comments

Remember Me Tab

   
Remember Me-Hoobastank
Hoobastank

my tab rip off-z:
http://www.angelfire.com/tx4/tabz/tabs.html


Drop D:
D A D G B E

< > = harmonics

Intro: 25 sec. then

Verses: w/ flanger

e---1-1-1-1-1-1-1---1-1-1-1-1-1-1---0-0-0-0-0-0-0---0-0-0-0-0-0-0-
b---3-3-3-3-3-3-3---3-3-3-3-3-3-3---3-3-3-3-3-3-3---3-3-3-3-3-3-3-
g---2-2-2-2-2-2-2---2-2-2-2-2-2-2---2-2-2-2-2-2-2---2-2-2-2-2-2-2-
d---0-0-0-0-0-0-0---0-0-0-0-0-0-0---0-0-0-0-0-0-0---0-0-0-0-0-0-0-
a-----------------------------------------------------------------
d-----------------------------------------------------------------

e---3-3-3-3-3-3-3---3-3-3-3-3-3-3---1-1-1-1-1-1-1---0-0-0-0-0-0-0-
b---3-3-3-3-3-3-3---3-3-3-3-3-3-3---1-1-1-1-1-1-1---1-1-1-1-1-1-1-
g---4-4-4-4-4-4-4---4-4-4-4-4-4-4---2-2-2-2-2-2-2---0-0-0-0-0-0-0-
d---5-5-5-5-5-5-5---5-5-5-5-5-5-5---3-3-3-3-3-3-3---2-2-2-2-2-2-2-
a---------------------------------------------------3-3-3-3-3-3-3-
d-----------------------------------------------------------------

e---1-1-1-1-1-1-1---1-1-1-1-1-1-1---0-0-0-0-0-0-0---0-0-0-0-0-0-0-
b---3-3-3-3-3-3-3---3-3-3-3-3-3-3---3-3-3-3-3-3-3---3-3-3-3-3-3-3-
g---2-2-2-2-2-2-2---2-2-2-2-2-2-2---2-2-2-2-2-2-2---2-2-2-2-2-2-2-
d---0-0-0-0-0-0-0---0-0-0-0-0-0-0---0-0-0-0-0-0-0---0-0-0-0-0-0-0-
a-----------------------------------------------------------------
d-----------------------------------------------------------------

e---3-3-3-3-3-3-3---3-3-3-3-3-3-3---1-1-1-1-1-1-1-----------------
b---3-3-3-3-3-3-3---3-3-3-3-3-3-3---1-1-1-1-1-1-1-----------------
g---4-4-4-4-4-4-4---4-4-4-4-4-4-4---2-2-2-2-2-2-2----5------------
d---5-5-5-5-5-5-5---5-5-5-5-5-5-5---3-3-3-3-3-3-3---5-------------
a--------------------------------------------------3--------------
d-------------------------------------------------5---------------

Pre Chorus: 

Fig. 1

e-----------------------------------
b-----------------------------------
g-----------------------------------
d--------------------------5/7\5----
a-0-0-10-7-10-12-0-0-3-5---3/5\3-5--
d-0-0-10-7-10-12-0-0-3-5---------5--
[ Tab from: http://www.guitartabs.cc/tabs/h/hoobastank/remember_me_tab_ver_2.html ]
e-----------------------------------
b-----------------------------------
g-----------------------------------
d--------------------------5/7\5----
a-0-0-10-7-10-12-0-0-3-5---3/5\3-3--
d-0-0-10-7-10-12-0-0-3-5---------3--

Chorus:

Fig. 2 x2

e-------------------------------------------------
b-------------------------------------------------
g-------------------------------------------------
d-0--0-----------------0--0------------------0----
a-0--0-----------------0--0------------------0----
d-0--0-<3>-<3>-<3>-<3>-0--0-<3>-<3>-<3>-<3>--0----

e-------------------------------------------------
b-------------------------------------------------
g---------------------5--5------------------------
d-3-------------------5--5-------------------3/---
a-3-------------------3--3-------------------3/---
d-3---<5>-<5>-<5>-<5>------<5>-<5>-<5>-<5>--------

e-1----1----3----3---3-3--------------------------
b-1----1----3----3---3-3--------------------------
g-3----3----5----5---5-5--------------------------
d-3----3----5----5---5-5--------------------------
a-1----1----3----3---3-3--0--10---0--10---0---10--
d-3----3----5----5---5-5--0--10---0--10---0---10--

after 2nd chorus:

x2
e-------------------------------------------------
b-------------------------------------------------
g-------------------------------------------------
d-------------------------------------------------
a-0--10---0---10----0--0--0--10---0---10----0--0--
d-0--10---0---10----0--0--0--10---0---10----0--0--

Bridge:

x4
e---1-1-1-1-1---1---1-1-1-1-1-1---0-0-0-0-0---0---0-0-0-0-0-0-0---
b---3-3-3-3-3---3---3-3-3-3-3-3---3-3-3-3-3---3---3-3-3-3-3-3-3---
g---2-2-2-2-2---2---2-2-2-2-2-2---2-2-2-2-2---2---2-2-2-2-2-2-2---
d---0-0-0-0-0---0---0-0-0-0-0-0---0-0-0-0-0---0---0-0-0-0-0-0-0---
a-----------------------------------------------------------------
d-----------------------------------------------------------------

Outro:

e-----------------------------------------------------------------
b-6----5--5-5-6-6-6-5-5-5-6-6-5-5-6----5--5-5-6-6-6-5-5-5-6-6-5-5-
g-7----5--5-5-7-7-7-5-5-5-7-7-5-5-7----5--5-5-7-7-7-5-5-5-7-7-5-5-
d-7----5--5-5-7-7-7-5-5-5-7-7-5-5-7----5--5-5-7-7-7-5-5-5-7-7-5-5-
a-5----3--3-3-5-5-5-3-3-3-5-5-3-3-5----3--3-3-5-5-5-3-3-3-5-5-3-3-
d-----------------------------------------------------------------


thatís all

trevor jones
timmy91199@yahoo.ca
Comments