Hoobastank - Remember Me Chords & Tabs

 

Remember Me Chords & Tabs

Hoobastank Chords & Tabs

Version: 1 Type: Tab 0 ratings
1 star 2 stars 3 stars 4 stars 5 stars
comments

Remember Me Tab

-------------------------------------------------------------------------------
                        REMEMBER ME - Hoobastank
-------------------------------------------------------------------------------

By:  Greg(reelbigfish23@hotmail.com)
     Gary(TheAtaris07@aol.com)

DROP D TUNING!

~ - let ring out
* - harmonic
\ - slide
0x
0x - mute after strumming
0x


End of Pre Verse:
e|---|
B|---|
G|5~-|
D|5~-|
A|3~-|
D|---|

Verse:  "I wanted to be just like..."  (2x)
e|---------------------------------------------------------------------------|
B|---------------------------------------------------------------------------|
G|---------------------------------------------------------------------------|
D|---------------------------------------------------------------------------|
A|0-12-10-0-10-12-0---3-5-0-10-12-10-5--0-12-10-0-10-12-0---3-5-0-10-12-10-3-|
D|0-12-10-0-10-12-0---3-5-0-10-12-10-5--0-12-10-0-10-12-0---3-5-0-10-12-10-3-|

Chorus:  "Do you remember now..."  (2x)
e|---------------------------------------------------------------------------|
B|---------------------------------------------------------------------------|
G|----------------------------------------------------------------5\3-3-3-3-3|
D|-0-0x--*-*-*-*-0-0x--*-*-*-*--0-0--3-3x----------3-3x-----------5\3-3-3-3-3|
A|-0-0x--5-5-5-5-0-0x--5-5-5-5--0-0--3-3x--*-*-*-*-3-3x--*-*-*-*--3\1-1-1-1-1|
D|-0-0x----------0-0x-----------0-0--3-3x--5-5-5-5-3-3x--5-5-5-5-------------|
[ Tab from: http://www.guitartabs.cc/tabs/h/hoobastank/remember_me_tab.html ]
Chorus Cont'd:
e|---------------------------------------------------------------------------|
B|---------------------------------------------------------------------------|
G|-3-3-3-3-5-5-5-5-5-5-5-5---5---5---5---------------------------------------|
D|-3-3-3-3-5-5-5-5-5-5-5-5---5---5---5---------------------------------------|
A|-1-1-1-1-3-3-3-3-3-3-3-3-0-3-0-3-0-3---------------------------------------|
D|-------------------------0---0---0-----------------------------------------|

Pre Verse:  (Bass only)

Repeat Verse:  (2x)

Repeat Chorus:  (2x)

Pre Bridge:  "Part of me, part of me, yeah yeah"  (3x)
e|---------------------------------------------------------------------------|
B|---------------------------------------------------------------------------|
G|--5---5---5----------------------------------------------------------------|
D|--5---5---5----------------------------------------------------------------|
A|0-3-0-3-0-3----------------------------------------------------------------|
D|0---0---0------------------------------------------------------------------|

Bridge:  Guitar 1  "You're never going to be a..."  (Come in on 3rd bar)
e|---------------------------------------------------------------------------|
B|---------------------------------------------------------------------------|
G|5~---5---5---5---5---5---5---5---5---5---5---5---5-------------------------|
D|5~---5---5---5---5---5---5---5---5---5---5---5---5-------------------------|
A|3~-0-3-0-3-0-3-0-3-0-3-0-3-0-3-0-3-0-3-0-3-0-3-0-3-------------------------|
D|---0---0---0---0---0---0---0---0---0---0---0---0---------------------------|

Bridge:  Guitar 2  "You're never going to be a..."  (Repeat quite a few times)
e|---------------------------------------------------------------------------|
B|---------------------------------------------------------------------------|
G|10-10-10-9-9-9-------------------------------------------------------------|
D|-x--x--x-x-x-x-------------------------------------------------------------|
A|-8--8--8-7-7-7-------------------------------------------------------------|
D|---------------------------------------------------------------------------|

Repeat Chorus:  (2x)

Repeat Pre Bridge:  Guitar 1 and Guitar 2 plays Bridge part

Hoobie rocks!  They have cool riffs.  http://www.geocities.com/ggtabs07
===============================================================================
Comments