Hoobastank - Out Of Control Chords & Tabs

 

Out Of Control Chords & Tabs

Hoobastank Chords & Tabs

Version: 9 Type: Tab 0 ratings
1 star 2 stars 3 stars 4 stars 5 stars
comments

Out Of Control Tab

   
Gtr I (E B E G# B E) - 

 Intro

  (Em)              (Esus2)           (Dsus2)           N.A5N.A5N.A5
 4/4
  Gtr I
  PM  PM  PM  PM    PM  PM  PM  PM    PM  PM  PM  PM    PM  PM  PM
 
|-----------------|-----------------|-----------------|-----------------||
|---8---8---8---8-|---7---7---7---7-|---5---5---5---5-|-----------------||
|-----------------|-----------------|-----------------|-----------------||
|-----------------|-----------------|-----------------|-----------------||
|---5---5---5---5-|---5---5---5---5-|---3---3---3---3-|---5---5---5-5-5-||
|-0---0---0---0---|-0---0---0---0---|-0---0---0---0---|-0-5-0-5-0-5-5-5-||


   Verse
    (Em)              (Esus2)           (Dsus2)           N.A5N.A5N.A5
    PM  PM  PM  PM    PM  PM  PM  PM    PM  PM  PM  PM    PM  PM  PM
   
||------------------|-----------------|-----------------|-------------------||
||o---8---8---8---8-|---7---7---7---7-|---5---5---5---5-|------------------o||
||------------------|-----------------|-----------------|-------------------||
||------------------|-----------------|-----------------|-------------------||
||o---5---5---5---5-|---5---5---5---5-|---3---3---3---3-|---5---5---5-5-5--o||
||--0---0---0---0---|-0---0---0---0---|-0---0---0---0---|-0-5-0-5-0-5-5-5---||


  (Em)              (Esus2)           (Dsus2)           N.A5        G5A5
  PM  PM  PM  PM    PM  PM  PM  PM    PM  PM  PM  PM    PM
  
|-----------------|-----------------|-----------------|-----------------||
|---8---8---8---8-|---7---7---7---7-|---5---5---5---5-|-----------------||
|-----------------|-----------------|-----------------|-----------------||
|-----------------|-----------------|-----------------|-----------------||
|---5---5---5---5-|---5---5---5---5-|---3---3---3---3-|---5-5-5-5-5-3-5-||
|-0---0---0---0---|-0---0---0---0---|-0---0---0---0---|-0-5-5-5-5-5-3-5-||


 Pre-Chorus
  $
  E5    F#G5F#E5      F#G5F#E5C5      E5    F#G5F#E5      F#G5F#E5F5
  
|-----------------|-----------------|-----------------|-----------------||
|-----------------|-----------------|-----------------|-----------------||
|-----------------|-----------------|-----------------|-----------------||
|-----------------|-----------3-3-3-|-----------------|-----------------||
|-0-0-0-2-3-2-0-0-|-0-2-3-2-0-1-1-1-|-0-0-0-2-3-2-0-0-|-0-2-3-2-0-1-1-1-||
|-0-0-0-2-3-2-0-0-|-0-2-3-2-0-------|-0-0-0-2-3-2-0-0-|-0-2-3-2-0-1-1-1-||


 Chorus
  $$
  E5    N.C.        C5    N.C.             G5                B5    C5  D5
  
|-----------------|----------------------|-----------------|-----------------|
|-----------------|----------------------|-----------------|-----------------|
|-------8-8-8-8---|-------11-11-11-11-11-|-----------------|-----------------|
|-----------------|-3-3------------------|-----------------|-2-2-2-3-3-5-5-5-|
|-0-0---5-5-5-5---|-1-1----8--8--8--8--8-|-3-3-3-3-3-3-3-3-|-0-0-0-1-1-3-3-3-|
|-0-0-------------|----------------------|-3-3-3-3-3-3-3-3-|-----------------|


                                                                    To Coda
                                                                    To Coda
  E5    N.C.        C5    N.C.             B5                D5    D     Dsus4
  
|-----------------|----------------------|-----------------|-----------------||
|-----------------|----------------------|-----------------|-------7-7-7-8-8-||
|-------8-8-8-8---|-------11-11-11-11-11-|-----------------|-----------------||
|-----------------|-3-3------------------|-2-2-2-2-2-2-2-2-|-5-5-5-5-5-5-5-5-||
|-0-0---5-5-5-5---|-1-1----8--8--8--8--8-|-0-0-0-0-0-0-0-0-|-3-3-3-3-3-3-3-3-||
|-0-0-------------|----------------------|-----------------|-----------------||


 Pre-Verse
  Esus2                     Em
  
|-------------------------|-------------------------||
|-------------------------|-------------------------||
|-10-10-10-10-10-10-10-10-|-11-11-11-11-11-11-11-11-||
|--0--0--0--0--0--0--0--0-|--0--0--0--0--0--0--0--0-||
|-------------------------|-------------------------||
|-------------------------|-------------------------||


   Verse
    (Em)              (Esus2)           (Dsus2)           N.A5N.A5N.A5
    PM  PM  PM  PM    PM  PM  PM  PM    PM  PM  PM  PM    PM  PM  PM
    
||------------------|-----------------|-----------------|-------------------||
||o---8---8---8---8-|---7---7---7---7-|---5---5---5---5-|------------------o||
||------------------|-----------------|-----------------|-------------------||
||------------------|-----------------|-----------------|-------------------||
||o---5---5---5---5-|---5---5---5---5-|---3---3---3---3-|---5---5---5-5-5--o||
||--0---0---0---0---|-0---0---0---0---|-0---0---0---0---|-0-5-0-5-0-5-5-5---||


                                                          D.S. al Coda
  Em                Esus2             Dsus2             A5        G5
  
|-----------------|-----------------|-----------------|-----------------||
|-8-8-8-8-8-8-8-8-|-7-7-7-7-7-7-7-7-|-5-5-5-5-5-5-5-5-|-----------------||
|-----------------|-----------------|-----------------|-----------------||
|-----------------|-----------------|-----------------|-----------------||
|-5-5-5-5-5-5-5-5-|-5-5-5-5-5-5-5-5-|-3-3-3-3-3-3-3-3-|-5-5-5-5-5-3-3-3-||
|-----------------|-----------------|-----------------|-5-5-5-5-5-3-3-3-||

[ Tab from: http://www.guitartabs.cc/tabs/h/hoobastank/out_of_control_tab_ver_9.html ]
  &
  E5            C5            G5            B5
  
|-------------|-------------|-------------|-----------------|
|-------------|-------------|-------------|-----------------|
|-------------|-------------|-------------|-----------------|
|-------------|-3----3--3-3-|-------------|-2-2-2-2-2-2-2-2-|
|-0----0--0-0-|-1----1--1-1-|-3----3--3-3-|-0-0-0-0-0-0-0-0-|
|-0----0--0-0-|-------------|-3----3--3-3-|-----------------|


  E5    N.C.        C5    N.C.             B5                D5

|-----------------|----------------------|-----------------|-5-5-5-5-5-5-5-5-||
|-----------------|----------------------|-----------------|-----------------||
|-------8-8-8-8---|-------11-11-11-11-11-|-----------------|-----------------||
|-----------------|-3-3------------------|-2-2-2-2-2-2-2-2-|-5-5-5-5-5-5-5-5-||
|-0-0---5-5-5-5---|-1-1----8--8--8--8--8-|-0-0-0-0-0-0-0-0-|-3-3-3-3-3-3-3-3-||
|-0-0-------------|----------------------|-----------------|-----------------||


   Bridge
    E5    F#G5F#E5      F#G5F#E5C5      E5    F#G5F#E5      F#G5F#E5F5
   
||------------------|-----------------|-----------------|-------------------||
||o-----------------|-----------------|-----------------|------------------o||
||------------------|-----------------|-----------------|-------------------||
||------------------|-----------3-3-3-|-----------------|-------------------||
||o-0-0---2-3-2-0-0-|---2-3-2-0-1-1-1-|-0-0---2-3-2-0-0-|---2-3-2-0-1-1-1--o||
||--0-0---2-3-2-0-0-|---2-3-2-0-------|-0-0---2-3-2-0-0-|---2-3-2-0-1-1-1---||


 Interlude
  E5    N.C.                           E5    N.C.
  PM|                                  PM|
 
|-------0-0-0-0-0-|-0-0-0-0--0-0-0-0-|-------0-0-0-0-0-|-0-0-0-0--0-0-0-0-|
|-------5-5-5-5-5-|-5-3-3-3-/6-6-6-6-|-------5-5-5-5-5-|-5-3-3-3-/6-6-6-6-|
|-----------------|------------------|-----------------|------------------|
|-----------------|------------------|-----------------|------------------|
|-0-0-------------|------------------|-0-0-------------|------------------|
|-0-0-------------|------------------|-0-0-------------|------------------|


  E5    N.C.                           E5    N.C.
  PM|                                  PM|
  
|-------0-0-0-0-0-|-0-0-0-0--0-0-0-0-|-------0-0-0-0-0-|------||
|-------5-5-5-5-5-|-5-3-3-3-/6-6-6-6-|-------5-5-5-5-5-|------||
|-----------------|------------------|-----------------|------||
|-----------------|------------------|-----------------|------||
|-0-0-------------|------------------|-0-0-------------|------||
|-0-0-------------|------------------|-0-0-------------|------||


   Pre-Chorus
                                                     D.S.S. al Dbl. Coda
    E5    F#G5F#E5      F#G5F#E5C5      E5    F#G5F#E5      F#G5F#E5F5
   
||------------------|-----------------|-----------------|-------------------||
||o-----------------|-----------------|-----------------|------------------o||
||------------------|-----------------|-----------------|-------------------||
||------------------|-----------3-3-3-|-----------------|-------------------||
||o-0-0-0-2-3-2-0-0-|-0-2-3-2-0-1-1-1-|-0-0-0-2-3-2-0-0-|-0-2-3-2-0-1-1-1--o||
||--0-0-0-2-3-2-0-0-|-0-2-3-2-0-------|-0-0-0-2-3-2-0-0-|-0-2-3-2-0-1-1-1---||


  &&
  E5            C5            G5            B5
  
|-------------|-------------|-------------|-----------------|
|-------------|-------------|-------------|-----------------|
|-------------|-------------|-------------|-----------------|
|-------------|-3----3--3-3-|-------------|-2-2-2-2-2-2-2-2-|
|-0----0--0-0-|-1----1--1-1-|-3----3--3-3-|-0-0-0-0-0-0-0-0-|
|-0----0--0-0-|-------------|-3----3--3-3-|-----------------|


  E5    N.C.        C5    N.C.             B5                D5
 
|-----------------|----------------------|-----------------|-5-5-5-5-5-5-5-5-||
|-----------------|----------------------|-----------------|-----------------||
|-------8-8-8-8---|-------11-11-11-11-11-|-----------------|-----------------||
|-----------------|-3-3------------------|-2-2-2-2-2-2-2-2-|-5-5-5-5-5-5-5-5-||
|-0-0---5-5-5-5---|-1-1----8--8--8--8--8-|-0-0-0-0-0-0-0-0-|-3-3-3-3-3-3-3-3-||
|-0-0-------------|----------------------|-----------------|-----------------||


   Outro
    E5    F#G5F#E5      F#G5F#E5C5      E5    F#G5F#E5      F#G5F#E5F5
   
||------------------|-----------------|-----------------|-------------------||
||o-----------------|-----------------|-----------------|------------------o||
||------------------|-----------------|-----------------|-------------------||
||------------------|-----------3-3-3-|-----------------|-------------------||
||o-0-0-0-2-3-2-0-0-|-0-2-3-2-0-1-1-1-|-0-0-0-2-3-2-0-0-|-0-2-3-2-0-1-1-1--o||
||--0-0-0-2-3-2-0-0-|-0-2-3-2-0-------|-0-0-0-2-3-2-0-0-|-0-2-3-2-0-1-1-1---||




Tablature Legend
----------------
 h   - hammer-on
 p   - pull-off
 b   - bend
 pb  - pre-bend
 r   - bend release (if no number after the r, then release immediately)
 /\  - slide into or out of (from/to "nowhere")
 s   - legato slide
 S   - shift slide
  - natural harmonic
[n]  - artificial harmonic
n(n) - tapped harmonic
 ~   - vibrato
 tr  - trill
 T   - tap
 TP  - trem. picking
 PM  - palm muting
\n/  - tremolo bar dip; n = amount to dip
 \n  - tremolo bar down
 n/  - tremolo bar up
/n\  - tremolo bar inverted dip
 =   - hold bend; also acts as connecting device for hammers/pulls
 <>  - volume swell (louder/softer)
 x   - on rhythm slash represents muted slash
 o   - on rhythm slash represents single note slash
Comments