Hoobastank - Out Of Control Chords & Tabs

 

Out Of Control Chords & Tabs

Hoobastank Chords & Tabs

Version: 5 Type: Tab 0 ratings
1 star 2 stars 3 stars 4 stars 5 stars
comments

Out Of Control Tab

   
-----------------------------------------------------------------------------
                      Out of Control - Hoobastank
-----------------------------------------------------------------------------
Tabbed by:C-Diddy
Tuning: Drop D

Intro/Verses
e|---------------------------------------------------------------
B|---------------------------------------------------------------
G|-12 12 12 12 12--11 11 11 11 11--9 9 9 9 9---------------------
D|-14 14 14 14 14--14 14 14 14 14--7 7 7 7 7--7 7--5 5 5---------
A|--------------------------------------------7 7--5 5 5---------
D|--------------------------------------------7 7--5 5 5 --------

Pre-Chorus
e|---------------------------------------------------------------
B|---------------------------------------------------------------
G|-------------------------------5 5 5---------------------------
D|-2 2 2--5--2 2 2 2--5--2 2--0--5 5 5---------------------------
A|-2 2 2--5--2 2 2 2--5--2 2--0--3 3 3---------------------------
D|-2 2 2--5--2 2 2 2--5--2 2--0----------------------------------
   " Im spinnin out of control................."

Chorus
e|---------------------------------------------------------------
B|---------------------------------------------------------------
G|------9-9-9--5 5--12 12 12-------------------------------------
D|-2 2---------5 5------------5 5 5--9 9 9--10 10--12 12---------
A|-2 2--7-7-7--3 3--10 10 10--5 5 5--9 9 9--10 10--12 12---------
D|-2 2------------------------5 5 5--9 9 9--10 10--12 12---------
[ Tab from: http://www.guitartabs.cc/tabs/h/hoobastank/out_of_control_tab_ver_5.html ]
e|---------------------------------------------------------------
B|---------------------------------------------------------------
G|------9 9 9--5 5--12 12 12---------9 9--1111--12 12------------
D|-2 2---------5 5------------5 5 5------------------------------
A|-2 2--7 7 7--3 3--10 10 10--5 5 5--7 7--9 9---10 10------------
D|-2 2------------------------5 5 5------------------------------

Bridge
e|---------------------------------------------------------------
B|---------------------------------------------------------------
G|------5 5-------4 4--------------------------------------------
D|-2 2--5 5--5 5--4 4--------------------------------------------
A|-2 2--3 3--5 5--2 2--------------------------------------------
D|-2 2-------5 5-------------------------------------------------
      "and i may never know"

Interlude
e|---------------------------------------------------------------
B|---------------------------------------------------------------
G|---------------------------------5 5---------------------------
D|-2 2--2--4 4--2 2--2--4--2--0 0--5 5---------------------------
A|-2 2--2--4 4--2 2--2--4--2--0 0--3 3---------------------------
D|-2 2--2--4 4--2 2--2--4--2--0 0--------------------------------

e|---------------------------------------------------------------
B|-5 5 5 5 5 5 5 5--3 3 3 3--/6 6--------------------------------
G|---------------------------------------------------------------
D|---------------------------------------------------------------
A|---------------------------------------------------------------
D|---------------------------------------------------------------



| /  slide up
| \  slide down
| h  hammer-on
| p  pull-off
| ~  vibrato
| +  harmonic
| x  Mute note
===============================================================================
Comments