Hoobastank - Out Of Control Chords & Tabs

 

Out Of Control Chords & Tabs

Hoobastank Chords & Tabs

Version: 1 Type: Tab 0 ratings
1 star 2 stars 3 stars 4 stars 5 stars
comments

Out Of Control Tab

Tabbed by Erik M

Hoobastank - Out Of Control

Tuning: Drop D 

Intro/Verse:
e|-------------------------------------------|
B|-------------------------------------------|
G|--12-12-12-12-11-11-11-11-9-9-9-9-9-9------|
D|---9--9--9--9--9--9--9--9-7-7-7-7-9-9-777--| x4
A|---7--7--7--7--7--7--7--7-7-7-7-7-7-7-777--|
D|-------------------------------------------|

 

Pre-Chorus:
e|-------------------------------------------|
B|-------------------------------------------|
G|--------------555--------------------------|
D|--222454224542553-222454224542333----------|
A|--222454224542333-222454224542333----------|
D|--222454224542----222454224542333----------|

Chorus:  
e|-------------------------------------------|
B|-------------------------------------------|
G|----(9-9-9)-55(12-12-12)---------4445577---|
D|--22--------55-----------555555554445577---| 
A|--22(7-7-7)-33(10-10-10)-555555552223355---|
D|--22---------------------55555555----------|

e|-------------------------------------------|
B|-------------------------------------------|
G|----(9,9,9)-55(12,12,12)---44444447777777--|
D|--22--------55-------------44444447777777--| 
A|--22(7,7,7)-33(10,10,10)---22222225555555--|
D|--22---------------------------------------|
[ Tab from: http://www.guitartabs.cc/tabs/h/hoobastank/out_of_control_tab.html ]
riff
0:57 
e|--------------------------------------------------|
B|--------------------------------------------------|
G|11-11-11-11-11-11-11-11-12-12-12-12-12-12-12-12---|
D|9--9--9--9--9--9--9--9--9--9--9--9--9--9--9--9----|
A|--------------------------------------------------|
D|--------------------------------------------------|

verse

Pre-Chorus

Chorus

1:22
e|-------------------------------------------|
B|-------------------------------------------|
G|--------------5~----------------------4~---|
D|--2~----------5~----------5~----------4~---|
A|--2~----------3~----------5~----------2~---|
D|--2~----------------------5~---------------|

Chorus

Bridge:
e|-------------------------------------------|
B|-------------------------------------------|
G|------------------5555---------------------|
D|--22--454-22-454-25555-22--454-22-454-23333-| x2
A|--22--454-22-454-23333-22--454-22-454-23333-|
D|--22--454-22-454-2-----22--454-22-454-23333-|

e|------000000---0000--000-------------------|
B|------555555---3333--666-------------------|
G|-------------------------------------------|
D|--2-2--------------------------------------| x4
A|--2-2--------------------------------------|
D|--2-2--------------------------------------|

Pre-Chorus

Chorus

Pre-Chorus (Outro)
Comments