Hoobastank - Ksi Chords & Tabs

 

Ksi Chords & Tabs

Hoobastank Chords & Tabs

Version: 2 Type: Tab 0 ratings
1 star 2 stars 3 stars 4 stars 5 stars
comments

Ksi Tab

   
Band: Hoobastank
Song: Ksi
Tuning: Drop D (D,A,D,G,B,e)
By: Brad Barat
Email: cakshibbi@aol.com

Ksi is played in drop D like most of Hoobastanks songs. The intro took me a while but its pretty accurate 
maybe a few mistakes. I didn?t find any other tabs for this song on the site so if anyone can make 
or add parts I left out go ahead. If you have any corrections or anything to add email me.

Intro:
e |-----------------------------------------------|
B |-----------------------------------------------|
G |---------------------------------------0-----0-|
D |-4---4---4---4-5-4-2-----------------0-----0---|
A |---------------------4-0-4^5-5^0---------------|
D |---0---0---0-----------------------0-----3-----|

e |--------------------|
B |--------------------|
G |--------------------|
D |-4--------4---------|
A |---0-4^5----0-4^5-0-|
D |--------------------| x4
[ Tab from: http://www.guitartabs.cc/tabs/h/hoobastank/ksi_tab_ver_2.html ]
Verse:
e |-----------------------------------------------|
B |-----------------------------------------------|
G |---------------------------------------0-----0-|
D |-4---4---4---4-5-4-2-----------------0-----0---|
A |---------------------4-0-4^5-5^0---------------|
D |---0---0---0-----------------------0-----3-----|
   "You want. . ."

e |-----------------------------------------------|
B |-----------------------------------------------|
G |-12-12-12-11-11-11-9-9-9-7-7-7-7s9s7-----------|
D |-----------------------------------------------|
A |-----------------------------------------------|
D |-----------------------------------------------|


e |-----------------------------------------------|
B |-----------------------------------------------|
G |-----------------------------------------------|
D |-15-15-15-14-14-14-12-12-12-10-10-10-10s12s10--|
A |-----------------------------------------------|
D |-----------------------------------------------|


Chorus:
e |-------------------------------|
B |-------------------------------|
G |----------3--------------------|
D |----0--3--3--1-----------------|
A |----0--3--1--1-----------------|
D |----0--3-----1-----------------|
   "Open your eyes. . . "
   (this shows only the chords, not the strumming pattern)
Comments