Hoobastank - Just One Chords & Tabs

 

Just One Chords & Tabs

Hoobastank Chords & Tabs

Version: 3 Type: Tab 0 ratings
1 star 2 stars 3 stars 4 stars 5 stars
comments

Just One Tab

hoobastank
from:the reason
just one

DbAbDbGbBbEb

intro/part 1
|------------------------------------------------|
|------------------------------------------------|
|------------------------------------------------|
|------2-3--------2-3--------2-3--------2-5-2-2--|
|--5-3-----3----3-----3-3--3-----3-3--3----------|
|------------------------------------------------|

part 2  strum this, listen for chord changes
|------------------|----------------------|
|--3---------------|--3-------------------|
|--2---------------|--2-------------------|
|--0---8---3---5---|--0---8---5---3---5---|
|--0---8---3---3---|--0---8---5---3---3---|
|--0---8---3-------|--0---8---5---3-------|
repeat
[ Tab from: http://www.guitartabs.cc/tabs/h/hoobastank/just_one_tab_ver_3.html ]
part 1
chorus strum this
|------------------|----------------------|------------------------------|
|--3---------------|--3-------------------|--3---------------------------|
|--2---------------|--2-------------------|--2---------------------------|
|--0---8---3---5---|--0---8---5---3---5---|--0---8---3---5---1---3---3---|
|--0---8---3---3---|--0---8---5---3---3---|--0---8---3---3---1---1---3---|
|--0---8---3-------|--0---8---5---3-------|--0---8---3-------1-------3---|

part 1
do harmonics down the neck
chorus
break
|---------------------|
|---------------------|
|---------------------|
|--55555555-666-8888--|
|--55555555-666-8888--|
|--55555555-666-8888--|

part 3
|------------------------------------------------|
|------------------------------------------------|
|------------------------------------------------|
|------------------------------------------------|
|--0-3-0--33-0-3-0--33--0-3-0--33--0--55-0--666--|
|--0-3-0--33-0-3-0--33--0-3-0--33--0--55-0--666--|
repeat

part 4 strum this
|---------------------------|
|---------------3-----------|
|--10--9---12---2---10--12--|
|--8---7---10---0---8---10--|
|--8---7---10---0---8---10--|
|--8---7---10---0---8---10--|

|------------------------|
|------------------------|
|------------------------|
|------------------------|
|--0-3-0--33--0-55--666--|
|--0-3-0--33--0-55--666--|

part 4
half of intro
chorus 2x
part 3
Comments