Hoobastank - From The Heart Chords & Tabs

 

From The Heart Chords & Tabs

Hoobastank Chords & Tabs

Version: 2 Type: Tab 0 ratings
1 star 2 stars 3 stars 4 stars 5 stars
comments

From The Heart Tab

hoobastank
the reason
from the heart

DbAbDbGbBbEb
[ Tab from: http://www.guitartabs.cc/tabs/h/hoobastank/from_the_heart_tab_ver_2.html ]
intro
|------------------------------------------------------|
|------------------------------------------------------|
|------------------------------------------------------|
|------5---5h7------7---7s8------8---8s7------3---3h5--|
|------------------------------------------------------|
|--5-5---5------5-5---5------8-8---8------3-3---3------|
repeat
|----------------------------|      |-------------------|
|----------------------------|      |-------------------|
|----------------------------|      |-------------------|
|------0---0h7------7---7s8--|      |--8-8-8-8-8-8-8-8--|
|----------------------------|      |--8-8-8-8-8-8-8-8--|
|--0-0---0------0-0---0------|      |--8-8-8-8-8-8-8-8--|
repeat 2x

chorus     strum the chords
|-----------------|------------------|
|-----------------|------------------|
|-----------------|------------------|
|--5---8---3------|--0---8---3-------|
|--5---8---3------|--0---8---3-------|
|--5---8---3------|--0---8---3-------|

repeat intro
chorus
chorus part 2              riff with 2nd chorus part
|----------------|       |-----------|
|----------------|       |-----------|
|----------------|       |------9----|
|--1---8---3-----|       |--7-8------|
|--1---8---3-----|       |-----------|
|--1---8---3-----|       |-----------|

repeat intro
chorus plus 2nd part 2x
Comments