Hoobastank - First Of Me Chords & Tabs

 

First Of Me Chords & Tabs

Hoobastank Chords & Tabs

Version: 1 Type: Tab

First Of Me Tab

   
Artist: Hoobastank
Song: First Of Me 
Album: Every Man For Himself
Tuning: Standard

PRE-CHORUS: (Palm muted)
e|--------------------------------------|
B|--------------------------------------|
G|--------------------------------------|
D|-7777777---77777777777777---6666666---|
A|-5555555-0-44444444444444-0-4444444-0-|
E|--------------------------------------|

Keep on repeating that until: (Palm muted still)
e|------------------------------------|
B|------------------------------------|
G|------------------------------------|
D|-4444444444444444-77777777-99999999-| 
A|-2222222222222222-55555555-77777777-|
E|------------------------------------|
[ Tab from: http://www.guitartabs.cc/tabs/h/hoobastank/first_of_me_tab.html ]
e|------------------|
B|------------------|
G|------------------|
D|-444444444444-222-| (x2)
A|-444444444444-222-|
E|-222222222222-000-|

CHORUS:
e|---------------------|
B|----------------5----|
G|----------------6--7-|
D|-4----7----2----6--7-|
A|-4----7----2----4--5-|
E|-2----5----0---------|

Sometime at the end of the song, this is played along with the chorus:
e|-9--7-----------7-|
B|-------10--9-10---|
G|------------------|
D|------------------|
A|------------------|
E|------------------|

OUTRO:
e|-4-4-5-4---|
B|---------5-|
G|-----------| (x2)
D|-----------|
A|-----------|
E|-----------|

e|-4-4-5-4-----------4-4-|
B|---------7--6-6--7-----|
G|-----------------------| 
D|-----------------------|
A|-----------------------|
E|-----------------------|

And thats it.

Feel free to comment or rate.