Hoobastank - Crawling In The Dark Chords & Tabs

 

Crawling In The Dark Chords & Tabs

Hoobastank Chords & Tabs

Version: 4 Type: Tab 0 ratings
1 star 2 stars 3 stars 4 stars 5 stars
comments

Crawling In The Dark Tab

   
Hoobastank
Crawling In The Dark
Tabbed by: mjwk_1986@yahoo.com

Tuning-Open E (E-B-E-G#-B-E)

Intro

E-----------------------------------:3---------------------------------
B-----------------------------------:t---------------------------------
G#----------------------------------:i---------------------------------
E-------9---10---9----------------7-:m-------5---4---7---5---4---------
B-7-7-7---7----7---7-10-7-9-0-5-5---:e-3-3-3---3---3---5---5---5-5-5-5-
E-----------------------------------:s---------------------------------

E---------------------------------------------------------------------
B---------------------------------------------------------------------
G#--------------------------------------------------------------------
E-----------5-5-5-5------------12-12-12-12-12-12-12-0-5-5-5-5-0-0-0-0-
B-0h2-2-0-2-3-3-2-2-5-5-0--0-0-10-10-10-10-10-10-10-0-5-5-5-5-0-0-0-0-
E-0h2-2-0-2---------5-5-0--0-0-10-10-10-10-10-10-10-0-5-5-5-5-0-0-0-0-

Verse
               2 times                         2 times
E----------------------------------- ---------------------------------
B----------------------------------- ---------------------------------
G#---------------------------------- ---------------------------------
E-------9---10---9----------------7- -------5---4---7---5---4---------
B-7-7-7---7----7---7-10-7-9-0-5-5--- -3-3-3---3---3---5---5---5-5-5-5-
E----------------------------------- ---------------------------------

Chorus
[ Tab from: http://www.guitartabs.cc/tabs/h/hoobastank/crawling_in_the_dark_tab_ver_4.html ]
E---------------------------------------------------------------
B---------------------------------------------------------------
G#--------------------------------------------------------------
E-----------5-5-5-5-----------------------5-5-5-5---------------
B-0h2-2-0-2-3-3-2-2-5-5-0--0-0--0h2-2-0-2-3-3-2-2-5-5-0--0-0-10-
E-0h2-2-0-2---------5-5-0--0-0--0h2-2-0-2---------5-5-0--0-0-10-

E------------------------0---0-0-----------------------------0---0-0-----
B------------------------0---0-0-----------------------------0---0-0-----
G#-----------------------0---0-0-----------------------------0---0-0-----
E-12-12--12-12-12-12-----0---0-0------12-12--12-12-12-12-----0---0-0-----
B-10-10--10-10-10-10-0-0-0---0-0-0-0--10-10--10-10-10-10-0-0-0---0-0-0-0-
E-10-10--10-10-10-10-0-0-0---0-0-0-0--10-10--10-10-10-10-0-0-0---0-0-0-0-

E---------------------------------------------------------------
B---------------------------------------------------------------
G#--------------------------------------------------------------
E-----------5-5-5-5-----------------------5-5-5-5---------------
B-0h2-2-0-2-3-3-2-2-5-5-0--0-0--0h2-2-0-2-3-3-2-2-5-5-0--0-0-10-
E-0h2-2-0-2---------5-5-0--0-0--0h2-2-0-2---------5-5-0--0-0-10-

E------------------------0---0-0-----------------------------0---0-0-----
B------------------------0---0-0-----------------------------0---0-0-----
G#-----------------------0---0-0-----------------------------0---0-0-----
E-12-12--12-12-12-12-----0---0-0------12-12--12-12-12-12-----0---0-0-----
B-10-10--10-10-10-10-0-0-0---0-0-0-0--10-10--10-10-10-10-0-0-0---0-0-0-0-
E-10-10--10-10-10-10-0-0-0---0-0-0-0--10-10--10-10-10-10-0-0-0---0-0-0-0-


Interlude

E---------------------------------------
B---------------------------------------
G#--------------------------------------
E---------------------------------------
B-0-2----0-2----0-2----0-2----0-2--3--3-
E-0-2----0-2----0-2----0-2----0-2--3--3-

Comments