Hoobastank - Crawling In The Dark Chords & Tabs

 

Crawling In The Dark Chords & Tabs

Hoobastank Chords & Tabs

Version: 2 Type: Tab 0 ratings
1 star 2 stars 3 stars 4 stars 5 stars
comments

Crawling In The Dark Tab

Band: Hoobastank
Title: Crawling In The Dark 
Album: Hoobastank 
Tabbed TheLastHurrah aka Half of Nothing
Email: TheLastHurrah@hotmail.com

Intro with a little fx 

------------------------------------------------------------------------------ 
------------------------------------------------------------------------------ 
------------------------------------------------------------------------------ 
-------11---12---11---9---7-------9-------------7---6---9---7----6------------ 
-9-9-9----9----9----9---9---7-7-7---------5-5-5---5---5---5----5---5---7------ 
------------------------------------------------------------------------------ 
 intro pt1                            X3                                   X1  

------------------------------------------------------------------------------ 
------------------------------------------------------------------------------ 
------------------------------------------------------------------------------ 
-----------7-7-6-4-2--------7--7-7--7-7-7-7----------------------------------- 
-2h4-4-2h4-5-5-4-2-0--------5--5-5--5-5-5-5-4h6-6--7-7--6--------------------- 
-2-2-2-2-2----------------------------------4---4--5-5--4--------------------- 
        intro pt2     X3                                   X1                  

------------------------------------------------------------------------------ 
------------------------------------------------------------------------------ 
------------------------------------------------------------------------------ 
-------11---12---11---9---7-------9------------7---6---9---7---6-------------- 
-9-9-9----9----9----9---9---7-7-7--------5-5-5---5---5---5---5---5--7--------- 
------------------------------------------------------------------------------ 
       verse            X2                                             X2      
[ Tab from: http://www.guitartabs.cc/tabs/h/hoobastank/crawling_in_the_dark_tab_ver_2.html ]
------------------------------------------------------------------------------ 
------------------------------------------------------------------------------ 
------------------------------------------------------------------------------ 
------------7-7-6-4-2-----7--7-7--7-7-7-7-/-9--9-9--9-9-9-9------------------- 
-2h4-4-2h4--5-5-4-2-0-----5--5-5--5-5-5-5-/-7--7-7--7-7-7-7------------------- 
-2-2-2-2-2-------------------------------------------------------------------- 
     chorus           X2                                    X2                 

------------------------------------------------------------------------------ 
------------------------------------------------------------------------------ 
------------------------------------------------------------------------------ 
------------------------------------------------------------------------------ 
-2-4---2-4--2-4-----2-4---2-4-5----2-4--2-4--2-4----2-4--2-4--x-x-5-x-x-5----- 
-0-2---0-2--0-2-----0-2---0-2-3----0-2--0-2--0-2----0-2--0-2--x-x-3-x-x-3----- 
 Bridge pt1                     X2                                      X2   

------------------------------------------------------------------------------ 
------------------------------------------------------------------------------ 
-14---13-13---11---14---17-17--11--------------------------------------------- 
------------------------------------------------------------------------------ 
-12---11-11---9----12---15-15---9--------------------------------------------- 
------------------------------------------------------------------------------ 
 X16              X16              Bridge pt2 X2                               

------------------------------------------------------------------------------ 
------------------------------------------------------------------------------ 
------------------------------------------------------------------------------ 
------------------------------------------------------------------------------ 
------------------------------------------------------------------------------ 
------------------------------------------------------------------------------ 
                  
Hoobastank has got to be the breakthrough rock band of 2001....
Comments