Hoobastank - Crawling In The Dark Chords & Tabs

 

Crawling In The Dark Chords & Tabs

Hoobastank Chords & Tabs

Version: 14 Type: Tab 0 ratings
1 star 2 stars 3 stars 4 stars 5 stars
comments

Crawling In The Dark Tab

   
Band: Hoobastank
Song: Crawling in the Dark
This is my first tab so I Hope you guys like it.

Tuning: DROPPED D |-D-A-D-G-B-e-|

Ontro with phaser and Delay      3 Times
|-----------------------------------|
|-----------------------------------|
|-----------------------------------|
|-------9---10---9----------------7-|
|-7-7-7---7----7---7-10-7-9-5-5-5---|
|-----------------------------------|
Palm Mute

then                     Distortion
|-----------------------|-------|
|-----------------------|-------|
|-----------------------|-------|
|-------5---4---7---5---|-------|
|-5-5-5---5---5---5---5-|-0-2---|
|-----------------------|-0-2---|
Palm Mute slowly release

Ontro Part 2                   2 Times
|---------------------------------|
|---------------------------------|
|-----------5---5---4-------------|
|-----------5---5---4-------------|
|-0-2---0-2-3---3---2---0-0-0-0-0-|
|-0-2---0-2-------------0-0-0-0-0-|

then
|------------------------------------------------------|
|------------------------------------------------------|
|-----------5---5---4----------------------------------|
|-----------5---5---4-------------------12-12-12-12-12-|
|-0-2---0-2-3---3---2---0-0-0-0-10---10-10-10-10-10-10-|
|-0-2---0-2-------------0-0-0-0-10---10-10-10-10-10-10-|

|-------------------|
|-------------------|
|-------------------|
|-------------------|
|-0-5-5-5-5-0-0-0-0-|
|-0-5-5-5-5-0-0-0-0-|

Verse 1  with phaser and Delay   2 Times                           2 Times
|-----------------------------------|---------------------------------|
|-----------------------------------|---------------------------------|
|-----------------------------------|---------------------------------|
|-------9---10---9----------------7-|-------5---4---7---5---4---------|
|-7-7-7---7----7---7-10-7-9-5-5-5---|-5-5-5---5---5---5---5---7-7-7-7-|
|-----------------------------------|---------------------------------|
Palm Mute
                                 2 Times                           1 Time
|-----------------------------------|---------------------------------|
|-----------------------------------|---------------------------------|
|-----------------------------------|---------------------------------|
|-------9---10---9----------------7-|-------5---4---7---5---4---------| 
|-7-7-7---7----7---7-10-7-9-5-5-5---|-5-5-5---5---5---5---5---7-7-7-7-|
|-----------------------------------|---------------------------------|
Palm Mute

then                     Distortion
|-----------------------|-------|
|-----------------------|-------|
|-----------------------|-------|
|-------5---4---7---5---|-------|
|-5-5-5---5---5---5---5-|-0-2---|
|-----------------------|-0-2---|
Palm Mute slowly release

Chorus 2 Times
|---------------------------------|
|---------------------------------|
|-----------5---5---4-------------|
|-----------5---5---4-------------|
|-0-2---0-2-3---3---2---0-0-0-0-0-|
|-0-2---0-2-------------0-0-0-0-0-|

|-------------------------------------------------------|
|-------------------------------------------------------|
|-----------5---5---4-----------------------------------|
|-----------5---5---4-------------------12---12-12-12---|
|-0-2---0-2-3---3---2---0-0-0-0-10---10-10---10-10-10---|
|-0-2---0-2-------------0-0-0-0-10---10-10---10-10-10---|

|-----0---0-0-0---|
|-----0---0-0-0---|
|-----0---0-0-0---|
|-----0---0-0-0---|
|-0-0-0---0-0-0---|
|-0-0-0---0-0-0---|

|-------------------------0-0-0-0-0-0-0-|
|-------------------------0-0-0-0-0-0-0-|
|-------------------------0-0-0-0-0-0-0-|
|-------12---12-12-12-----0-0-0-0-0-0-0-|
|-10-10-10---10-10-10---0-0-0-0-0-0-0-0-|
|-10-10-10---10-10-10---0-0-0-0-0-0-0-0-|

Verse 2 with phaser and Delay    2 Times                           2 Times
|-----------------------------------|---------------------------------|
|-----------------------------------|---------------------------------|
|-----------------------------------|---------------------------------|
|-------9---10---9----------------7-|-------5---4---7---5---4---------|
|-7-7-7---7----7---7-10-7-9-5-5-5---|-5-5-5---5---5---5---5---7-7-7-7-|
|-----------------------------------|---------------------------------|
Palm Mute
                                 2 Times                           1 Time
|-----------------------------------|---------------------------------|
|-----------------------------------|---------------------------------|
|-----------------------------------|---------------------------------|
|-------9---10---9----------------7-|-------5---4---7---5---4---------| 
|-7-7-7---7----7---7-10-7-9-5-5-5---|-5-5-5---5---5---5---5---7-7-7-7-|
|-----------------------------------|---------------------------------|
Palm Mute

then             Distortion
|---------------|---------------|
|---------------|---------------|
|---------------|---------------|
|-------5---4---|-4---4-4---4---|
|-5-5-5---5---5-|-5---5-5---5---|
|---------------|---------------|
Palm Mute slowly release

Chorus 2 Times
|---------------------------------|
|---------------------------------|
|-----------5---5---4-------------|
|-----------5---5---4-------------|
|-0-2---0-2-3---3---2---0-0-0-0-0-|
|-0-2---0-2-------------0-0-0-0-0-|

|-------------------------------------------------------|
|-------------------------------------------------------|
|-----------5---5---4-----------------------------------|
|-----------5---5---4-------------------12---12-12-12---|
|-0-2---0-2-3---3---2---0-0-0-0-10---10-10---10-10-10---|
|-0-2---0-2-------------0-0-0-0-10---10-10---10-10-10---|

|-----0---0-0-0---|
|-----0---0-0-0---|
|-----0---0-0-0---|
|-----0---0-0-0---|
|-0-0-0---0-0-0---|
|-0-0-0---0-0-0---|
[ Tab from: http://www.guitartabs.cc/tabs/h/hoobastank/crawling_in_the_dark_tab_ver_14.html ]
|-------------------------0-0-0-0-0-0-0-|
|-------------------------0-0-0-0-0-0-0-|
|-------------------------0-0-0-0-0-0-0-|
|-------12---12-12-12-----0-0-0-0-0-0-0-|
|-10-10-10---10-10-10---0-0-0-0-0-0-0-0-|
|-10-10-10---10-10-10---0-0-0-0-0-0-0-0-|

Interlude                                                      2 Times
|-----------------------------------------------------------------|
|-----------------------------------------------------------------|
|-----------------------------------------------------------------|
|-----------------------------------------------------------------|
|-0-2---------0-2---------0-2-----0-2---------0-2-----3-----------|
|-0-2---------0-2---------0-2-----0-2---------0-2-----3-----------|

Interlude part 2        X is Palm Mute                         2 Times
|-----------------------------------------------------------------|
|-----------------------------------------------------------------|
|-----------------------------------------------------------------|
|-----------------------------------------------------------------|
|-0-2-X-X-X-X-0-2-X-X-X-X-0-2-X-X-0-2-X-X-X-X-0-2-X-X-3---X-X-3---|
|-0-2-X-X-X-X-0-2-X-X-X-X-0-2-X-X-0-2-X-X-X-X-0-2-X-X-3---X-X-3---|

Bridge
|-------------------------------------------------|
|-------------------------------------------------|
|-------------------------------------------------|
|-12-12-12-12-12-12-12-12-12-12-12-12-12-12-12-12-|
|-10-10-10-10-10-10-10-10-10-10-10-10-10-10-10-10-|
|-10-10-10-10-10-10-10-10-10-10-10-10-10-10-10-10-|

|---------------------------------|
|---------------------------------|
|---------------------------------|
|-4-4-4-4-4-4-4-4-4-4-4-4-4-4-4-4-|
|-0-0-0-0-0-0-2-2-2-2-2-2-2-2-2-2-|
|-0-0-0-0-0-0-2-2-2-2-2-2-2-2-2-2-|

|-------------------------------------------------|
|-------------------------------------------------|
|-------------------------------------------------|
|-12-12-12-12-12-12-12-12-12-12-12-12-12-12-12-12-|
|-10-10-10-10-10-10-10-10-10-10-10-10-10-10-10-10-|
|-10-10-10-10-10-10-10-10-10-10-10-10-10-10-10-10-|

|---------------------------------|
|---------------------------------|
|---------------------------------|
|-7-7-7-7-7-7-5-5-5-5-5-5-5-5-5-5-|
|-5-5-5-5-5-5-5-5-5-5-5-5-5-5-5-5-|
|-4-4-4-4-4-4-5-5-5-5-5-5-5-5-5-5-|

|-------------------------------------------------|
|-------------------------------------------------|
|-------------------------------------------------|
|-12-12-12-12-12-12-12-12-12-12-12-12-12-12-12-12-|
|-10-10-10-10-10-10-10-10-10-10-10-10-10-10-10-10-|
|-10-10-10-10-10-10-10-10-10-10-10-10-10-10-10-10-|

|---------------------------------|
|---------------------------------|
|---------------------------------|
|-4-4-4-4-4-4-4-4-4-4-4-4-4-4-4-4-|
|-0-0-0-0-0-0-2-2-2-2-2-2-2-2-2-2-|
|-0-0-0-0-0-0-2-2-2-2-2-2-2-2-2-2-|

|-------------------------------------------------|
|-------------------------------------------------|
|-------------------------------------------------|
|-12-12-12-12-12-12-12-12-12-12-12-12-12-12-12-12-|
|-10-10-10-10-10-10-10-10-10-10-10-10-10-10-10-10-|
|-10-10-10-10-10-10-10-10-10-10-10-10-10-10-10-10-|

|---------------------------------|
|---------------------------------|
|---------------------------------|
|---------------------------------|
|-0-0-0-0-0-0-0-0-0-0-0-0-0-0-0-0-|
|-5-5-5-7-7-7-9-9-9-9-9-9-0-0-0-0-|

Last Chorus with phaser and Delay
|-----------------------------------|
|-----------------------------------|
|-----------------------------------|
|-------9---10---9----------------7-|
|-7-7-7---7----7---7-10-7-9-5-5-5---|
|-----------------------------------|
Palm Mute
                                 Distortion
|-------------------------------|-------------------------------0---0-0-0---|
|-------------------------------|-------------------------------0---0-0-0---|
|-------------------------------|-------------------------------0---0-0-0---|
|-------9---10---9--------------|-----------12---12-12-12-------0---0-0-0---|
|-7-7-7---7----7---7-10-7-9-5-5-|-0-10---10-10---10-10-10---0-0-0---0-0-0---|
|-------------------------------|-0-10---10-10---10-10-10---0-0-0---0-0-0---|
Palm Mute slowly release

|-------------------------0-0-0-0-0-0-0-|
|-------------------------0-0-0-0-0-0-0-|
|-------------------------0-0-0-0-0-0-0-|
|-------12---12-12-12-----0-0-0-0-0-0-0-|
|-10-10-10---10-10-10---0-0-0-0-0-0-0-0-|
|-10-10-10---10-10-10---0-0-0-0-0-0-0-0-|

|---------------------------------|
|---------------------------------|
|-----------5---5---4-------------|
|-----------5---5---4-------------|
|-0-2---0-2-3---3---2---0-0-0-0-0-|
|-0-2---0-2-------------0-0-0-0-0-|

|-------------------------------------------------------|
|-------------------------------------------------------|
|-----------5---5---4-----------------------------------|
|-----------5---5---4-------------------12---12-12-12---|
|-0-2---0-2-3---3---2---0-0-0-0-10---10-10---10-10-10---|
|-0-2---0-2-------------0-0-0-0-10---10-10---10-10-10---|

|-----0---0-0-0---|
|-----0---0-0-0---|
|-----0---0-0-0---|
|-----0---0-0-0---|
|-0-0-0---0-0-0---|
|-0-0-0---0-0-0---|

|-------------------------0-0-0-0-0-0-0-|
|-------------------------0-0-0-0-0-0-0-|
|-------------------------0-0-0-0-0-0-0-|
|-------12---12-12-12-----0-0-0-0-0-0-0-|
|-10-10-10---10-10-10---0-0-0-0-0-0-0-0-|
|-10-10-10---10-10-10---0-0-0-0-0-0-0-0-|

Outro                          3 Times
|---------------------------------|
|---------------------------------|
|-----------5---5---4-------------|
|-----------5---5---4-------------|
|-0-2---0-2-3---3---2---0-0-0-0-0-|
|-0-2---0-2-------------0-0-0-0-0-|

|-------------------------|
|-------------------------|
|-----------5---5---4-----|
|-----------5---5---4-----|
|-0-2---0-2-3---3---2---0-|
|-0-2---0-2-------------0-|
Comments