Hoobastank - Crawling In The Dark Chords & Tabs

 

Crawling In The Dark Chords & Tabs

Hoobastank Chords & Tabs

Version: 3 Type: Bass Tab 0 ratings
1 star 2 stars 3 stars 4 stars 5 stars
comments

Crawling In The Dark Bass Tab

   
Crawling in the dark by Hoobastank
Tuning-D,A,D,G

(Intro)
G:-----------------------|
D:-----------------------|  x3
A:------------2-5-5-5-4--|
D:2-4-4-2-4-4-----------2|

G:-------------------------------|
D:-------------------------------|
A:----------------0-0-0-0--------|
D:4-4-4-4-4-4-4-4---------2-2-2-2|

(Verse)
G:--------------------------|
D:--------------------------|
A:--------------------------|
D:2-4-4-2-4--2--2-4-4-2-4--2|

G:-------------------------------|
D:-------------------------------|  x2
A:----------------0-0-0-0--------|
D:0-0-0-0-0-0-0-0---------2-2-2-2|

G:-------------------------------|
D:-------------------------------|
A:----------------0-0-0-0--------|
D:4-4-4-4-4-4-4-4---------2-2-2-2|

G:-------------------------------|
D:-------------------------------|  x2
A:----------------0-0-0-0--------|
D:0-0-0-0-0-0-0-0---------2-2-2-2|

(Chorus)
G:-----------------------|
D:-----------------------|  x2
A:------------2-5-5-5-4--|
D:2-4-4-2-4-4-----------2|

G:--------------------------------|
D:--------------------------------|  x2
A:--------------------------------|
D:0-0-0-0-0-0-0-0--2-2-2-2-2-2-2-2|

G:-----------------------|      |----------------------|
D:-----------------------|  x2  |----------------------|
A:------------2-5-5-5-4--|      |----------------------|
D:2-4-4-2-4-4-----------2|      |0(8)--2(8)--0(8)--2(8)|

G:--------------------------|     
D:--------------------------| -x2  
A:--------------------------|      
D:2-4-4-2-4--2--2-4-4-2-4--2|      

G:-------------------------------|
D:-------------------------------|  x2
A:----------------0-0-0-0--------|
D:0-0-0-0-0-0-0-0---------2-2-2-2|
[ Tab from: http://www.guitartabs.cc/tabs/h/hoobastank/crawling_in_the_dark_btab_ver_3.html ]
G:--------------------------|     
D:--------------------------| -x2  
A:--------------------------|      
D:2-4-4-2-4--2--2-4-4-2-4--2|      

G:-------------------------------|
D:-------------------------------|  x2
A:----------------0-0-0-0--------|
D:0-0-0-0-0-0-0-0---------2-2-2-2|

G:-----------------------|      |----------------------|
D:-----------------------| -x2  |----------------------| -x2
A:------------2-5-5-5-4--|      |----------------------|
D:2-4-4-2-4-4-----------2|      |0(8)--2(8)--0(8)--2(8)|

G:-----------------------|      |----------------------|
D:-----------------------| -x2  |----------------------| -x2
A:------------2-5-5-5-4--|      |----------------------|
D:2-4-4-2-4-4-----------2|      |0(8)--2(8)--0(8)--2(8)|

G:-------------------------|
D:-------------------------|  x2
A:-------------------------|
D:2-4--2-4--2-4-2-4--2-4--5|

G:---------------------------------------------|
D:---------------------------------------------|  x2
A:---------------------------------------------|
D:2-4(6)--2-4(6)--2-4--2-4(6)--2-4(6)--5--4-4-5|

G:---------------------------------|      |----------|
D:---------------------------------| -x3  |----------|
A:0-0-0-0-0-0-0-0------------------|      |0(8)------|
D:-----------------2-2-2-2--4-4-4-4|      |------2(8)|

(2.30)
G:----------------------|      |-----------------------|
D:----------------------| -x2  |-----------------------| -x2
A:----------------------|      |------------2-5-5-5-4--|
D:0(8)--2(8)--0(8)--2(8)|      |2-4-4-2-4-4-----------2|

G:--------------------------------|
D:--------------------------------|  x4
A:--------------------------------|
D:0-0-0-0-0-0-0-0--2-2-2-2-2-2-2-2|

G:-----------------------|
D:-----------------------|  x3
A:------------2-5-5-5-4--|
D:2-4-4-2-4-4-----------2|

Thanks, please rate it after you learn it.
Tabbed by:
_TheBassist01_
Comments