Hoobastank - Crawling In The Dark Chords & Tabs

 

Crawling In The Dark Chords & Tabs

Hoobastank Chords & Tabs

Version: 2 Type: Bass Tab 0 ratings
1 star 2 stars 3 stars 4 stars 5 stars
comments

Crawling In The Dark Bass Tab

   
Song name:  Crawling in the Dark
Artist: Hoobastank
Album: Hoobastank
Tabbed by: the_bassgenius

Very beginning:
E|-2222

Intro/chorus (part 1)x3
G|--------------------------
D|--------------------------
A|-----------5-5-5-4--------
E|-0-2-2-0-2--------5-0-0-0-
B|--------------------------

(Part 2)x1
G|-----------------------------------
D|-----------------------------------
A|-----------------------------------
E|-----------------------------------
B|--3-3-3-3-3-3-3-3--5-5-5-5-5-5-5-5-

Verse (part 1)x2
G|------------------------------
D|-------------4-4-4-4--2-2-2-2-
A|------------------------------
E|0-2-2-0-2-2-------------------
B|------------------------------

(Part 2) x2
G|-------------------------------
D|-------------------------------
A|---5-5-5-5-5-------------------
E|-0------0----5-5-5-5--0-0-0-0--
B|-------------------------------

[ Tab from: http://www.guitartabs.cc/tabs/h/hoobastank/crawling_in_the_dark_btab_ver_2.html ]
Break (part1)x2
G|-------------------------------------
D|-------------------------------------
A|-------------------------------------
E|--0h2---0h2---0h2---0h2--0h2-3^------
B|-------------------------------------

(Part 2)x2
G|---------------------------------------------------------
D|---------------------------------------------------------
A|---------------------------------------------------------
E|--0h2-2-2-2-2-0h2-2-2-2-2-0h2-2-2-2-2-0h2-2-2-2-2-0h2-3-3
B|---------------------------------------------------------

(Part3)x1
G|--------------------------------------
D|--------------------------------------
A|--------------------------------------
E|--------------------------------------
B|-3333333333333333--55555555--77777777-

(Part 4)
G|-------------------------------------
D|--------------------------------5h7--
A|-------------------------------------
E|---------------------------5555------
B|3333333333333333--55555555-----------

Then play break Part 3 once through

(Part 5)
G|--------------------------------------------------
D|--------------------------------------------------
A|--------------------------------------------------
E|333333333333333--555555555----------2222------2222
B|--------------------------------------------------
Comments