Hoobastank - Can I Buy You A Drink Chords & Tabs

 

Can I Buy You A Drink Chords & Tabs

Hoobastank Chords & Tabs

Version: 1 Type: Tab 0 ratings
1 star 2 stars 3 stars 4 stars 5 stars
comments

Can I Buy You A Drink Tab

   
Band- Hoobastank
Song- Can I Buy You A Drink

Tuning: Drop D - D A D G B e

|---8--8--8—88--xx---4—xxx--3--3--3--33--xx--4—xxx--------------|
|---8--8--8—88--xx---4—xxx--3--3--3--33--xx--4—xxx--------------|
|---8--8--8—88--xx---4—xxx--3--3--3--33--xx--4—xxx--------------|
|---------------------------------------------------------------|
|---------------------------------------------------------------|
|---------------------------------------------------------------|

|----1--1--1--11--xx--4--xxx---3--3--3--33—xx—6—xxx*------------|
|----1--1--1--11--xx--4--xxx---3--3--3--33—xx—6—xxx*------------|
|----1--1--1--11--xx--4--xxx---3--3--3--33—xx—6—xxx*------------|
|---------------------4-----------------------------------------|
|---------------------------------------------------------------|
|---------------------------------------------------------------|

|---8888—10-10-10-10—11-----------------------------------------|
|---8888—10-10-10-10—11-----------------------------------------|
|---8888—10-10-10-10—11-----------------------------------------|
|---------------------------------------------------------------|
|---------------------------------------------------------------|
|---------------------------------------------------------------|

|----8--8--8----8--8--8----8--8--8----8--8--8-------------------|
|----8--8--8----8--8--8----8--8--8----8--8--8-------------------|
|----8--8--8----8--8--8----8--8--8----8--8--8-------------------|
|---------------------------------------------------------------|
|---------------------------------------------------------------|
|---------------------------------------------------------------|

|----1--1—1----1--1—1-----1--1—1----1--1—1----------------------|
|----1--1—1----1--1—1-----1--1—1----1--1—1----------------------|
|----1--1—1----1--1—1-----1--1—1----1--1—1----------------------|
|---------------------------------------------------------------|
|---------------------------------------------------------------|
|---------------------------------------------------------------|

|----6—6—6----6—6—6----5—5—5----5—5—5---------------------------|
|----6—6—6----6—6—6----5—5—5----5—5—5---------------------------|
|----6—6—6----6—6—6----5—5—5----5—5—5---------------------------|
|---------------------------------------------------------------|
|---------------------------------------------------------------|
|---------------------------------------------------------------|

|----8--8--8----8--8--8----8--8--8---11-11-11-11-11-11----------|
|----8--8--8----8--8--8----8--8--8---11-11-11-11-11-11----------|
|----8--8--8----8--8--8----8--8--8---11-11-11-11-11-11----------|
|---------------------------------------------------------------|
|---------------------------------------------------------------|
|---------------------------------------------------------------|

|----8--8--8----8--8--8----8--8--8----8--8--8-------------------|
|----8--8--8----8--8--8----8--8--8----8--8--8-------------------|
|----8--8--8----8--8--8----8--8--8----8--8--8-------------------|
|---------------------------------------------------------------|
|---------------------------------------------------------------|
|---------------------------------------------------------------|

|----1--1—1----1--1—1-----1--1—1----1--1—1----------------------|
|----1--1—1----1--1—1-----1--1—1----1--1—1----------------------|
|----1--1—1----1--1—1-----1--1—1----1--1—1----------------------|
|---------------------------------------------------------------|
|---------------------------------------------------------------|
|---------------------------------------------------------------|

|----6—6—6----6—6—6----5—5—5----5—5—5---------------------------|
|----6—6—6----6—6—6----5—5—5----5—5—5---------------------------|
|----6—6—6----6—6—6----5—5—5----5—5—5---------------------------|
|---------------------------------------------------------------|
|---------------------------------------------------------------|
|---------------------------------------------------------------|

|----8--8--8----8--8--8----8--8--8------------------------------|
|----8--8--8----8--8--8----8--8--8------------------------------|
|----8--8--8----8--8--8----8--8--8------------------------------|
|---------------------------------------------------------------|
|---------------------------------------------------------------|
|---------------------------------------------------------------|

|---8--8--8—88--xx---4—xxx--3--3--3--33--xx--4—xxx--------------|
|---8--8--8—88--xx---4—xxx--3--3--3--33--xx--4—xxx--------------|
|---8--8--8—88--xx---4—xxx--3--3--3--33--xx--4—xxx--------------|
|---------------------------------------------------------------|
|---------------------------------------------------------------|
|---------------------------------------------------------------|

|----1--1--1--11--xx--4--xxx---3--3--3--33—xx—6—xxx-------------|
|----1--1--1--11--xx--4--xxx---3--3--3--33—xx—6—xxx-------------|
|----1--1--1--11--xx--4--xxx---3--3--3--33—xx—6—xxx-------------|
|---------------------4-----------------------------------------|
|---------------------------------------------------------------|
|---------------------------------------------------------------|

|---8888—10-10-10-10—11-----------------------------------------|
|---8888—10-10-10-10—11-----------------------------------------|
|---8888—10-10-10-10—11-----------------------------------------|
|---------------------------------------------------------------|
|---------------------------------------------------------------|
|---------------------------------------------------------------|
[ Tab from: http://www.guitartabs.cc/tabs/h/hoobastank/can_i_buy_you_a_drink_tab.html ]
|----8--8--8----8--8--8----8--8--8----8--8--8-------------------|
|----8--8--8----8--8--8----8--8--8----8--8--8-------------------|
|----8--8--8----8--8--8----8--8--8----8--8--8-------------------|
|---------------------------------------------------------------|
|---------------------------------------------------------------|
|---------------------------------------------------------------|

|----1--1—1----1--1—1-----1--1—1----1--1—1----------------------|
|----1--1—1----1--1—1-----1--1—1----1--1—1----------------------|
|----1--1—1----1--1—1-----1--1—1----1--1—1----------------------|
|---------------------------------------------------------------|
|---------------------------------------------------------------|
|---------------------------------------------------------------|

|----6—6—6----6—6—6----5—5—5----5—5—5---------------------------|
|----6—6—6----6—6—6----5—5—5----5—5—5---------------------------|
|----6—6—6----6—6—6----5—5—5----5—5—5---------------------------|
|---------------------------------------------------------------|
|---------------------------------------------------------------|
|---------------------------------------------------------------|

|----8--8--8----8--8--8----8--8--8---11-11-11-11-11-11----------|
|----8--8--8----8--8--8----8--8--8---11-11-11-11-11-11----------|
|----8--8--8----8--8--8----8--8--8---11-11-11-11-11-11----------|
|---------------------------------------------------------------|
|---------------------------------------------------------------|
|---------------------------------------------------------------|

|----8--8--8----8--8--8----8--8--8----8--8--8-------------------|
|----8--8--8----8--8--8----8--8--8----8--8--8-------------------|
|----8--8--8----8--8--8----8--8--8----8--8--8-------------------|
|---------------------------------------------------------------|
|---------------------------------------------------------------|
|---------------------------------------------------------------|

|----1--1—1----1--1—1-----1--1—1----1--1—1----------------------|
|----1--1—1----1--1—1-----1--1—1----1--1—1----------------------|
|----1--1—1----1--1—1-----1--1—1----1--1—1----------------------|
|---------------------------------------------------------------|
|---------------------------------------------------------------|
|---------------------------------------------------------------|

|----6—6—6----6—6—6----5—5—5----5—5—5---------------------------|
|----6—6—6----6—6—6----5—5—5----5—5—5---------------------------|
|----6—6—6----6—6—6----5—5—5----5—5—5---------------------------|
|---------------------------------------------------------------|
|---------------------------------------------------------------|
|---------------------------------------------------------------|

|----8--8--8----8--8--8----8--8--8------------------------------|
|----8--8--8----8--8--8----8--8--8------------------------------|
|----8--8--8----8--8--8----8--8--8------------------------------|
|---------------------------------------------------------------|
|---------------------------------------------------------------|
|---------------------------------------------------------------|

|---8--8--8—88--xx---4—xxx--3--3--3--33--xx--4—xxx--------------|
|---8--8--8—88--xx---4—xxx--3--3--3--33--xx--4—xxx--------------|
|---8--8--8—88--xx---4—xxx--3--3--3--33--xx--4—xxx--------------|
|---------------------------------------------------------------|
|---------------------------------------------------------------|
|---------------------------------------------------------------|

|----1--1--1--11--xx--4--xxx---3--3--3--33—xx—6—xxx-------------|
|----1--1--1--11--xx--4--xxx---3--3--3--33—xx—6—xxx-------------|
|----1--1--1--11--xx--4--xxx---3--3--3--33—xx—6—xxx-------------|
|---------------------4-----------------------------------------|
|---------------------------------------------------------------|
|---------------------------------------------------------------|

|----8--8--10--10--11—11—7--7--1--1--3--3--4--4--0--0-----------|
|----8--8--10--10--11—11—7--7--1--1--3--3--4--4--0--0-----------|
|----8--8--10--10--11—11—7--7--1--1--3--3--4--4--0--0-----------|
|---------------------------------------------------------------|
|---------------------------------------------------------------|
|---------------------------------------------------------------|

|---------------------------------------------------------------|
|---------------------------------------------------------------|
|---------------------------------------------------------------|
|----10--10--12--12--13--13--9--9--3--3--5--5--6--6--2--2-------|
|----10--10--12--12--13--13--9--9--3--3--5--5--6--6--2--2-------|
|----10--10--12--12--13--13--9--9--3--3--5--5--6--6--2--2-------|

|---8--8--8—88--xx---4—xxx--3--3--3--33--xx--4—xxx--------------|
|---8--8--8—88--xx---4—xxx--3--3--3--33--xx--4—xxx--------------|
|---8--8--8—88--xx---4—xxx--3--3--3--33--xx--4—xxx--------------|
|---------------------------------------------------------------|
|---------------------------------------------------------------|
|---------------------------------------------------------------|

|----1--1--1--11--xx--4--xxx---3--3--3--33—xx—6—xxx-------------|
|----1--1--1--11--xx--4--xxx---3--3--3--33—xx—6—xxx-------------|
|----1--1--1--11--xx--4--xxx---3--3--3--33—xx—6—xxx-------------|
|---------------------4-----------------------------------------|
|---------------------------------------------------------------|
|---------------------------------------------------------------|

|---8888—10-10-10-10—11-----------------------------------------|
|---8888—10-10-10-10—11-----------------------------------------|
|---8888—10-10-10-10—11-----------------------------------------|
|---------------------------------------------------------------|
|---------------------------------------------------------------|
|---------------------------------------------------------------|
Comments