Hoobas Tank - The Reason Chords & Tabs

 

The Reason Chords & Tabs

Hoobas Tank Chords & Tabs

Version: 1 Type: Chords 2 ratings
1 star 2 stars 3 stars 4 stars 5 stars
comments

The Reason Chords

   
tab by jeff parker
email address: jeff2x_jeff@yahoo.com / jeff2x@emp3mail.com

Intro:
-====base intro============-------
e----------------------------
B-------------------------------------
G------------------------------------
D-----0--0--0--0--0--0--0--0--0--0--0     
A---------------------------
E---------------------------

-=============================================


========on guitar---------

e----------------------------
B-------5---7----------------
G--7-----------6------------
D------------------------       8x
A---------------------------
E---------------------------

verse 1

Verse 1:

e----------------------------
B-------5---7----------------
G--7-----------6------------
D------------------------       4X
A---------------------------
E---------------------------

D9                        B9
    I'm not a perfect person 



e----------------------------
B---------------------------
G-------2---3--------------
D--4-------------2---------       x4
A---------------------------
E---------------------------

                                      D9
There are many things I wish I didn't do



e----------------------------
B-------5---7----------------
G--7-----------6------------
D------------------------       4X
A---------------------------
E---------------------------
			


e----------------------------
B---------------------------
G-------2---3--------------
D--4-------------2---------       x4
A---------------------------
E---------------------------


                     B9
But I continue learning



e----------------------------
B---------------------------
G-------2---4--------------
D--5-------------4---------       x4
A---------------------------
E---------------------------
                                     G
I never meant to do those things to you



e----------------------------
B---------------------------
G-------2---4--------------
D--5-------------4---------       x4
A---------------------------
E---------------------------
		              A9 
and so I have to say before I go

[ Tab from: http://www.guitartabs.cc/tabs/h/hoobas_tank/the_reason_crd.html ]
e----------------------------
B---------------------------
G-------4---6--------------
D--7-------------7---------       x4
A---------------------------
E---------------------------
                          D9
that I just want you to know



Chorus 1:			
 
                        B9                          G
I've found a reason for me, to change who I used to be

                       A                        D9			
a reason to start over new, and the reason is you
			
 

Verse 2:

                      B9
I'm sorry that I hurt you 

                                   D9
It's something I must live with everyday

			   B9                     
and all the pain I put you through

                                G
I wish that I could take it all away

			            A
and be the one who catches all your tears

                          D9
thats why I need you to hear
 


Chorus 2:			
 
                        B9                          G
I've found a reason for me, to change who I used to be

                       A                        C			
a reason to start over new, and the reason is you



Bridge:

	           D9
and the reason is you

                   C
and the reason is you

                   D9
and the reason is you



Verse 3:

                     B9
I'm not a perfect person  

                                    G
I never meant to do those things to you

                              A9
and so I have to say before I go 

                         D9
that I just want you to know
 

Repeat Chorus 1:

Chorus 3:
			
                       B9
I've found a reason to show 

                        G
a side of me you didn't know
 
                        A
a reason for all that I do

                   D9
and the reason is you


e----------------------------
B---------------------------
G-------2---3--------------
D--4-------------2---------       FADE
A---------------------------
E---------------------------


any comment and suggestion please EMAIL ME AT jeff2x@emp3mail.com or jeff2x_jeff@yahoo.com.ph

yan ang d best sa lahat ng tab! best of the best
Comments