Honeymoon Suite - Love Changes Everything Chords & Tabs

 

Love Changes Everything Chords & Tabs

Honeymoon Suite Chords & Tabs

Version: 1 Type: Tab 0 ratings
1 star 2 stars 3 stars 4 stars 5 stars
comments

Love Changes Everything Tab

HONEYMOON SUITE: LOVE CHANGES EVERYTHING

I've been trying for a while to find this tab on the internet with no luck, so I
tried my hand at doing it myself. Anyway, I thought I'd share it with the world.
I had to leave some fast licks and the solo out as a result of my low tabbing skill.

Comments or suggestions can go to nonickname@graffiti.net, and if anyone can tab
the solo please post it!

INTRO

----------7----------------------10---------------10-15-14--------------|
------8-----8-----------8---10-------------8---10----------15-----------|
----7---7-------------7---7----7---------7---7----------------14--------|
------------------------------------------------------------------------|
------------------------------------------------------------------------|
------------------------------------------------------------------------|

FIG 1

pm...   pm...

------5-------5-------6-------5-5------------------------------8--8--|
------6-------5-------6-------6-6------------10\--10--11---10--8--8--|
------7-------6-------7-----x-7-7--5-5-------10\--10--10---10--9--9--|
------7-------7-------8-----x-7-7--5-5-------10\--10--10---10--10-10-|
5-5-5-5-5-5-5-7-------8-----x-5-5--3-3-------------------------10-10-|
------5-------5-------6-------5-5------------------------------8--8--|

[ Tab from: http://www.guitartabs.cc/tabs/h/honeymoon_suite/love_changes_everything_tab.html ]
---12b13-----12-10-8-10-8----9b10---|hold bend, then release
--------------------------10--------|
------------------------------------|
------------------------------------|
------------------------------------|
------------------------------------|


VERSE 1

-----5--5----6--6--------------------5--5----6--6-----------------------5--5----6--6------------------|
-----6--6----6--6--------------------6--6----6--6-----------------------6--6----6--6------------------|
-----7--7----7--7----5--5----5--5----7--7----7--7----5--------5-5-5-5---7--7----7--7----5--5----5--5--|
-----7--7----8--8----5--5----5--5----7--7----8--8----5--------5-5-5-5---7--7----8--8----5--5----5--5--|
-----5--5----8--8----3--3----3--3----5--5----8--8----3--------3-3-3-3---5--5----8--8----3--3----3--3--|
-----5--5----6--6--------------------5--5----6--6-----------------------5--5----6--6------------------|


BRIDGE

---6-----------------5--------5--------|
---6-----------------6--------5--------|
---7--------5--------7--------6--------|
---8--------5--------7--------7--------|
---8--------3--------5--------7--------|
---6-----------------5--------5--------|


CHORUS 1 - Same as fig.1

VERSE 2 - same as verse 1

CHORUs 2 - same as fig.1


INTERLUDE(?) "Only a fool belives in a heart of steel....."

-------5-------6-------7-------8---------5-------6-------------------|
--x\---5-------6-------7-------8---------5-------6-------------------|
--x\---6-------7-------7-------9---------6-------7-------5-------2---|
--x\---7-------8-------9-------10--------7-------8-------5-------2---|
-------7-------8-------9-------10--------7-------8-------3-------0---|
-------5-------6-------7-------8---------5-------6-------------------|


SOLO: rhythm guitar plays same chords as verse 1, followed by bridge


CHORUS 3
Comments