Honeybrowne - Texas Angel Chords & Tabs

 

Texas Angel Chords & Tabs

Honeybrowne Chords & Tabs

Version: 1 Type: Tab 0 ratings
1 star 2 stars 3 stars 4 stars 5 stars
comments

Texas Angel Tab

  "Texas Angel"
  Honeybrowne
  Album:   "Finding Shade"

  Tune 1/2 step down

  **Make sure your printer is set to landscape before you print this.**

  There are two guitar parts to this song, but i only tabbed the lead on this one.

  Play this during the intro the first time. 


  e---0--------------------2--------------------2--------------------0------------------------
  B---0--------------------2--------------------3--------------------0------------------------
  G---2--------------------2--------------------2--------------------2------------------------
  D---2-----Let Ring-------4-----Let Ring-------0-----Let Ring-------2-----Let Ring-----------
  A---0--------------------4--------------------X--------------------0------------------------
  E---X--------------------2--------------------X--------------------X------------------------

  Play this part during the second time through the intro. 


  e-------------------------------------------------------------------------------------------
  B-------------------------------------------------------------------------------------------
  G------------------2--------------------2---------------------------------------------------
  D--------------2-4---4-2-4----------2-4---4-2-4-0-0-----------------------------------------
  A-----0-4----4-------------4-4----4--------------------4-4h5-4-2-4-0-0----------------------
  E---2---------------------------------------------------------------------------------------

  Play this for Verse 1 & Verse 2. 


  e-----------0--------0----0----------0--------------------0---------0----0--------0---------
  B-----------0--------0----0----------0--------------------0---------0----0--------0---------
  G-----------2--------2----2----------2--------------------2---------2----2--------2---------
  D-----------2--------2----2----------2--------------------2---------2----2--------2---------
  A-----------0--------0----0----------0--------------------0---------0----0--------0---------
  E-----------X--------X----X----------X--------------------X---------X----X--------X---------
  1)Well I'm   sittin' here all alone                       Wonderin' how you are.
  2)Well the   times that we had together    Well they just   blew    me   away.


  e-----------2--------2----2-------------2------------------------2--------2----2--------2---
  B-----------2--------2----2-------------2------------------------2--------2----2--------2---
  G-----------2--------2----2-------------2------------------------2--------2----2--------2---
  D-----------4--------4----4-------------4------------------------4--------4----4--------4---
  A-----------4--------4----4-------------4------------------------4--------4----4--------4---
  E-----------2--------2----2-------------2------------------------2--------2----2--------2---
  1)And the    thoughts of you are spinnin round my head     Like   wheels  on a car.
  2)And I      think about your soft green eyes                     Every single day.


  e------------2--------2----2-------------2--------------2--------2----2-------------2-------
  B------------3--------3----3-------------3--------------3--------3----3-------------3-------
  G------------2--------2----2-------------2--------------2--------2----2-------------2-------
  D------------0--------0----0-------------0--------------0--------0----0-------------0-------
  A------------X--------X----X-------------X--------------X--------X----X-------------X-------
  E------------X--------X----X-------------X--------------X--------X----X-------------X-------
  1)And I      wish you were beside me                                 Dreamin' up at the 
  2)And how my plans for us just seem to fall                          And fade into  


  e--------0--------0----0-------------0-----------------0--------0----0-------------0--------
  B--------0--------0----0-------------0-----------------0--------0----0-------------0--------
  G--------2--------2----2-------------2-----------------2--------2----2-------------2--------
  D--------2--------2----2-------------2-----------------2--------2----2-------------2--------
  A--------0--------0----0-------------0-----------------0--------0----0-------------0--------
  E--------X--------X----X-------------X-----------------X--------X----X-------------X--------
  1)       stars.
  2) the   gray.



  Then what I call the Prechorus:


  e---2--------2----2---------------2--------0--------0----0-------------0--------------------
  B---3--------3----3---------------3--------0--------0----0-------------0--------------------
  G---2--------2----2---------------2--------2--------2----2-------------2--------------------
  D---0--------0----0---------------0--------2--------2----2-------------2--------------------
  A---X--------X----X---------------X--------0--------0----0-------------0--------------------
  E---X--------X----X---------------X--------X--------X----X-------------X--------------------
                  I guess I didn't see it   comin'.
                     And as I cry myself  to sleep                          

  e---2--------2----2--------------------2--------0--------0----0-------------0---------------
  B---2--------2----2--------------------2--------0--------0----0-------------0---------------
  G---2--------2----2--------------------2--------1--------1----1-------------1---------------
  D---4--------4----4--------------------4--------2--------2----2-------------2---------------
  A---4--------4----4--------------------4--------2--------2----2-------------2---------------
  E---2--------2----2--------------------2--------0--------0----0-------------0---------------
                      How could I've     been soooooo           blind?
    I wonder        do I ever          cross your mind.


  Chorus:                                   


  e---------------0--------0----0----------0--------0------0--------0-----------0-------------
  B---------------0--------0----0----------0--------0------0--------0-----------0-------------
  G---------------2--------2----2----------2--------2------2--------2-----------2-------------
  D---------------2--------2----2----------2--------2------2--------2-----------2-------------
  A---------------0--------0----0----------0--------0------0--------0-----------0-------------
  E---------------X--------X----X----------X--------X------X--------X-----------X-------------
    So won't you smile for me   my Texas Angel.         It'll       be alright.


  e---------2--------2------2-------2--------2--------2----2------2---------------------------
  B---------2--------2------2-------2--------2--------2----2------2---------------------------
  G---------2--------2------2-------2--------2--------2----2------2---------------------------
  D---------4--------4------4-------4--------4--------4----4------4---------------------------
  A---------4--------4------4-------4--------4--------4----4------4---------------------------
  E---------2--------2------2-------2--------2--------2----2------2---------------------------
   You just lay your head beside me      and dream of me tonight.

[ Tab from: http://www.guitartabs.cc/tabs/h/honeybrowne/texas_angel_tab.html ]
  e------2-------2---2-----------2-----------2--------2----2----------2-----------------------
  B------3-------3---3-----------3-----------3--------3----3----------3-----------------------
  G------2-------2---2-----------2-----------2--------2----2----------2-----------------------
  D------0-------0---0-----------0-----------0--------0----0----------0-----------------------
  A------X-------X---X-----------X-----------X--------X----X----------X-----------------------
  E------X-------X---X-----------X-----------X--------X----X----------X-----------------------
   And I promise I'll watch over you                       til the morning


  e-------0--------0----0------------0-----------0--------0----0-------------0----------------
  B-------0--------0----0------------0-----------0--------0----0-------------0----------------
  G-------2--------2----2------------2-----------2--------2----2-------------2----------------
  D-------2--------2----2------------2-----------2--------2----2-------------2----------------
  A-------0--------0----0------------0-----------0--------0----0-------------0----------------
  E-------X--------X----X------------X-----------X--------X----X-------------X----------------
        light.



  Next comes the solo.

  e-------------------------------------------------------------------------------------------
  B---10/12--10--7----------------------------------------------------------------------0h3-3-
  G----9/11---9--6--9-6-----------------------------------------------------------0-2-4-------
  D-----------------9---9p7---7------------2-4---4p2---4-2------------------0-2-4-------------
  A-------------------------6--------0-2-4-----------4-----4p2-0--------2-4-------------------
  E--------------------------------4-----------------------------2----4-----------------------


  e--------10-9-7-9-9-------------------------------------------------------------------------
  B---8/10------------------------------------------------------------------------------------
  G-------------------------------------------------------------------------------------------
  D-------------------------------------------------------------------------------------------
  A-------------------------------------------------------------------------------------------
  E-------------------------------------------------------------------------------------------


  The lead doesn't play anything during Verse 3, but comes in with this on Verse 4. 


  e------------0------0------0-------------0------------0--------0--------0-------------0-----
  B------------0------0------0-------------0------------0--------0--------0-------------0-----
  G------------2------2------2-------------2------------2--------2--------2-------------2-----
  D------------2------2------2-------------2------------2--------2--------2-------------2-----
  A------------0------0------0-------------0------------0--------0--------0-------------0-----
  E------------X------X------X-------------X------------X--------X--------X-------------X-----
  4) So if you see me walkin' down the street           Baby don't turn away.


  e----------2-----2--------2-------------2-----------2-------2----2----------------2---------
  B----------2-----2--------2-------------2-----------2-------2----2----------------2---------
  G----------2-----2--------2-------------2-----------2-------2----2----------------2---------
  D----------4-----4--------4-------------4-----------4-------4----4----------------4---------
  A----------4-----4--------4-------------4-----------4-------4----4----------------4---------
  E----------2-----2--------2-------------2-----------2-------2----2----------------2---------
  4)  I just wanna see your smilin'       face        lookin' my   way.



  e-----------2-----2------2---------2------------2--------2----2------------2----------------
  B-----------3-----3------3---------3------------3--------3----3------------3----------------
  G-----------2-----2------2---------2------------2--------2----2------------2----------------
  D-----------0-----0------0---------0------------0--------0----0------------0----------------
  A-----------X-----X------X---------X------------X--------X----X------------X----------------
  E-----------x-----X------X---------X------------X--------X----X------------X----------------
  4)    And I never wanna see you go                            see you go



  e---------0--------0----0----------0-------------0-------0----0------------0----------------
  B---------0--------0----0----------0-------------0-------0----0------------0----------------
  G---------1--------1----1----------1-------------1-------1----1------------1----------------
  D---------2--------2----2----------2-------------2-------2----2------------2----------------
  A---------2--------2----2----------2-------------2-------2----2------------2----------------
  E---------0--------0----0----------0-------------0-------0----0------------0----------------
  4)       away.


  Chorus:                                   


  e---------------0--------0----0----------0--------0------0--------0-----------0-------------
  B---------------0--------0----0----------0--------0------0--------0-----------0-------------
  G---------------2--------2----2----------2--------2------2--------2-----------2-------------
  D---------------2--------2----2----------2--------2------2--------2-----------2-------------
  A---------------0--------0----0----------0--------0------0--------0-----------0-------------
  E---------------X--------X----X----------X--------X------X--------X-----------X-------------
    So won't you smile for me   my Texas Angel.         It'll       be alright.


  e---------2--------2------2-------2--------2--------2----2------2---------------------------
  B---------2--------2------2-------2--------2--------2----2------2---------------------------
  G---------2--------2------2-------2--------2--------2----2------2---------------------------
  D---------4--------4------4-------4--------4--------4----4------4---------------------------
  A---------4--------4------4-------4--------4--------4----4------4---------------------------
  E---------2--------2------2-------2--------2--------2----2------2---------------------------
   You just lay your head beside me          Baby just hold me    tight.


  e------2-------2---2-----------2-----------2--------2----2----------2-----------------------
  B------3-------3---3-----------3-----------3--------3----3----------3-----------------------
  G------2-------2---2-----------2-----------2--------2----2----------2-----------------------
  D------0-------0---0-----------0-----------0--------0----0----------0-----------------------
  A------X-------X---X-----------X-----------X--------X----X----------X-----------------------
  E------X-------X---X-----------X-----------X--------X----X----------X-----------------------
   And I promise I'll watch over you                       til the morning


  e-------0--------0----0------------0-----------0--------0----0-------------0----------------
  B-------0--------0----0------------0-----------0--------0----0-------------0----------------
  G-------2--------2----2------------2-----------2--------2----2-------------2----------------
  D-------2--------2----2------------2-----------2--------2----2-------------2----------------
  A-------0--------0----0------------0-----------0--------0----0-------------0----------------
  E-------X--------X----X------------X-----------X--------X----X-------------X----------------
        light.


  Then the outro part:



  e-------------------------------------------------------------------------------------------
  B-------------------------------------------------------------------------------------------
  G---------------------2--------------------2------------------------------------------------
  D-----------------2-4---4-2-4----------2-4---4-2-4-0-0--------------------------------------
  A-----0-4--0----4-------------4-4----4--------------------4-4h5-4-2-0-----------------------
  E---2---------------------------------------------------------------------------------------


  Well, that's it, questions or comments, email me.

  -Jay Childers
   jdogg20_00@yahoo.com
Comments