Hondo Maclean - Lolas Pictures Chords & Tabs

 

Lolas Pictures Chords & Tabs

Hondo Maclean Chords & Tabs

Version: 1 Type: Tab 0 ratings
1 star 2 stars 3 stars 4 stars 5 stars
comments

Lolas Pictures Tab

Hondo Maclean - Lola's Pictures - Chasing Angels EP

This is a great song. The guitars are in drop C# and are quite thick sounding. There is
fast and heavy palm-muting in the middle/end section, and in the clean bit after the 
are strummed.

Guitar 1 (all low C# are palm muted)
D#|-----------------------------------------------------------|
A#|-----------------------------------------------------------|
F#|---------10--------10--9-----------------------------------|
C#|--7---8------10--7--------10p0-----------------------------|
G#|-----------------------------------------------------------|
C#|-0--0--00--00--0--0--0--0------0-0-000-0-0-000-0-0-000-0-0-|
                                  v v v^v v v v^v v v v^v v v

|-------------------------------------------------------------|
|----------------------------6--------------------------------|
|------------------------------7------------------------------|
|---12p10---10--10p8--8p7-------------------------------------|
|-------------------------------------------------------------|
|-0-------00--00----0-----0------0000-000-0-0-000-0-0-000-0-0-|
                                 vvvv v^v v v v^v v v v^v v v

Guitar 2 (all low C# are palm muted)
|--------------------------------------------------------------|
|----------10---------11--10-----------------------------------|
|---------------10------------10p7-----------------------------|
|--10--12----------12------------------------------------------|
|--------------------------------------------------------------|
|-0--0--00---00---0--0--0---0------0-0-000-0-0-000-0-0-000-0-0-|

|--------------------------------------------------------------|
|--------------------------10----------------------------------|
|--10p9----9----9----9p7------10-------------------------------|
|--------------------------------------------------------------|
|--------------------------------------------------------------|
|-0-----00---00---0-----0---------0000-000-0-0-000-0-0-000-0-0-|
[ Tab from: http://www.guitartabs.cc/tabs/h/hondo_maclean/lolas_pictures_tab.html ]
Chorus
Guitar 1
  X8    X8      X8     X8     X8     X4     X4      X16
|------|-------|------|-----|------|-------|-------|------|---------|
|------|-------|------|-----|------|-------|-------|------|---------|
|------|-------|------|-----|------|-------|-------|------|---------|
|-10-10|-------|-10-10|--77-|-10-10|-------|-------|-10-10|---------|
|--8-8-|-10-10-|--8-8-|--88-|--8-8-|-12-12-|-10-10-|--8-8-|-88-88-8-|
|--8-8-|-10-10-|--8-8-|--77-|--8-8-|-12-12-|-10-10-|--8-8-|-88-88-8-|
PM_______
Guitar 2 (the proper timings can be figured out easier with the music)
 X6
|-----|------------------------|
|-----|------------------------|
|-1010|--99>-10-10>12-99-------|
|-----|------------------------|
|-8-8-|--77>-88-88>10-77-------|
|-----|------------------------|

Guitar 1			      Guitar 2
 X8     X8				X4
|-----|-------			|-------------------|
|-----|-------			|----------------20-|
|-----|-------			|-22-21-------------|
|-1010|-10-10-			|-------22-21-22----|
|-8-8-|-10-10-			|-------------------|
|-8-8-|-10-10-			|-------------------|


Heavy break down (both guitars are palm-muting)
C#|---------------------------------------------------------------|
G#|---------------------------------------------------------------|
C#|-0-0-0-0-00-0-0--000-0-000-000---0-0-0-0-00-0-0--000-0-000-000-|
    v v v v v^ v v  v^v v v^v v^v   v v v v v^ v v  v^v v v^v v^v

|---------|---------------|-0--------------------5----------|
|---------|---------------|-0--------------5--5--5----------|
|---------|---------------|-0--------------7--7--7----------|
|---------|---------------|-0----------0-0-0--0--0----------|
|---------|---------------|-0-------------------------------|
|-00-00---|-00-00-00-00---|-0-------------------------------|
  1st	           2nd        Let ring     (clean guitar)

Clean guitar 1			Clean guitar 2
X16	X16				X16
|------|-----			|--55--|
|------|-----			|--77--|
|------|-----			|--77--|
|--77--|-----			|------|
|--55--|--77-			|------|
|--55--|--77-			|------|
Repeat this section once

Clean guitar 2
X16
x8	then
|---|-----------------------------------|
|99-|-99-99-99-99-1010-1010-1010-1010---|
|99-|-99-99-99-99-99---99---99---99-----|
|77-|-77-77-77-77-77---77---77---77-----|
|---|-----------------------------------|
|---|-----------------------------------|

Clean guitar 1 X4
C#|--77-77-77-77-77-77-77-77----------------------------|
G#|--55-55-55-55-55-55-55-55---77-77-77-77-77-77-77-77--|
C#|--55-55-55-55-55-55-55-55---77-77-77-77-77-77-77-77--|


Clean guitar 2 X6
|----------------------------9-9-----------------------------|
|--10-------10-------10-----------10-9---10-9---10-9----10---|
|-----11-------11-------11-------------9------9------9---9---|
|--------12-------12-------12--------------------------------|
|------------------------------------------------------------|
|------------------------------------------------------------|
Some delay is used here, but it isn't vital.

Tabbed by sitdownstandup
Comments