Hondo Maclean - Lolas Pictures Chords & Tabs

 

Lolas Pictures Chords & Tabs

Hondo Maclean Chords & Tabs

Version: 1 Type: Bass Tab 0 ratings
1 star 2 stars 3 stars 4 stars 5 stars
comments

Lolas Pictures Bass Tab

   
Hondo Maclean - Lola's Pictures - Chasing Angels EP


F#|-------------------------------------------------------------|
C#|-------------------------------------------------------------|
G#|--------------------------------------------------------8----|
C#|--0000-0000-0000-0000X-10-10-10-10--10-10-10-10-8888-888-----|

F#|---------------------------------------------------------------|
C#|---------------------------------------------------------------|
G#|---------------------------------------------------------------|
C#|--0000-0000-0000-0000X-7788-8888-8888-8888--8p0----------------|

Chorus
F#|---------------------------------------------------------------|
C#|---------------------------------------------------------------|
G#|-----------------------5555-5555-5555-5555---------------------|
C#|--8888-8888-8888-8888----------------------8888-8888-8888-8888-|

C#|--7777-7777-3333-3333-

F#|--------------------------------------------------------------|
C#|--------------------------------------------------------------|
G#|----------------------5555-5555-3333-3333---------------------|
C#|--8888-8888-8888-8888---------------------8888-8888-8888-8888-|

C#|--8888-8888-8888-8888-
[ Tab from: http://www.guitartabs.cc/tabs/h/hondo_maclean/lolas_pictures_btab.html ]
Build up
F#|--------------------------------------------------------------|
C#|--------------------------------------------------------------|
G#|--------------------------------------------------------------|
C#|--8888-8888-8888-8888--10101010-10101010-10101010-10101010----|

Heavy breakdown bit
F#|----------------------------------------------------------------|
C#|----------------------------------------------------------------|
G#|----------------------------------------------------------------|
C#|-0-0-0-0-00-0-0---0-0-0-0-0-0-0---0-0-0-0-00-0-0X-0-0-0-0-0-0-0-|
All notes staccato

F#|---------|---------------|-----------------------------7-------|
C#|---------|---------------|--1010-10-10--10---77-7-7X5----------|
G#|---------|---------------|-------------------------------------|
C#|-00-00---|-00-00-00-00---|-------------------------------------|
  1st	           2nd         		(Let ring)

G#|-10101010-10101010-10101010X10101010-10101010-10101010-10101010X
-10101010
G#|-12121212-12121212-12121212-12121212-12121212-12121212-12121212-
-12121212
Repeat section

x4
G#|-10101010-10101010-10101010X10101010--12121212-12121212-12121212
-12121212

F#|-----------------------------14-16-18----------------------------------------|
C#|--------------------------14-------------------------------------------------|
G#|--10--12-----10--12------------------------------------------|
C#|-----------------------------------------------------------------------------|
Tabbed by sitdownstandup
Comments