Hometown Hero - Eighteen Chords & Tabs

 

Eighteen Chords & Tabs

Hometown Hero Chords & Tabs

Version: 1 Type: Tab 0 ratings
1 star 2 stars 3 stars 4 stars 5 stars
comments

Eighteen Tab

   
HOMETOWN HERO-EIGHTEEN
tabbed by Paul half_baked87@hotmail.com

TUNING-HALFSTEP DOWN IN DROP D

Figure out the rythm and number of strums yourself its not hard

Intro

you'll steal my heart...

E---------
B-7--12-2-
G-7--12-2-
D-7--12-2-
A-5--10-0-
D---------

Gtr. 2 (after the drums kick in) follows guitar 1

D-------
A-0-5-7-
D-0-5-7-


Chorus

All those things you said to me...

Gtr. 1
[ Tab from: http://www.guitartabs.cc/tabs/h/hometown_hero/eighteen_tab.html ]
E-2222222320-2222222320-----------------------
B-3333333333-3333333333-----------------------
G-2222222222-2222222222-4444444444-6666666666-
D-0000000000-0000000000-5555555555-7777777777-
A-----------------------5555555555-7777777777-
D-----------------------5555555555-7777777777-

Gtr. 2

D-7777777777-7777777777-----------------------
A-5555555555-5555555555-5555555555-7777777777-
D-----------------------5555555555-7777777777-

Verse

Heavy Distortion

Both GUitars

D-0----5--7-
A-0----5--7-
D-0----5--7-

Chorus: Same as Verse

SOLO:

e----------------------------(x4)------------------
B---------10---------10------    ------------------
G-7h9-7h9-9b10-7-7h9-9b10-7v-    ----7h9-9b--------
D-7h9-----------9------------    -7h9------9b------
A----------------------------    -------------7b-5-
D----------------------------    ------------------

Put it all together and u got it. Peace.













Comments