Homesick - Free Chords & Tabs

 

Free Chords & Tabs

Homesick Chords & Tabs

Version: 1 Type: Tab 0 ratings
1 star 2 stars 3 stars 4 stars 5 stars
comments

Free Tab

   
homesick
guitar tab
Nick Strangis
 

"Free"


D - X0023X
C - X3201X
G - 32003X

Rhythm will play over lead.

Intro
__D__C_G__D________C_G
|----3-3-----3*2---3-5-|
|-3--3-3--3------3-3---|
|-2--0-0--2--------0---|
|-0--2-0--0--------2---|
|-0--3-2--0--------3---|
|------3---------------|

Staring at the dark again you left your silhouette upon my pillow..

Right inside the night I'm waiting for the light, seems like I'm in the middle..

Riff1
__D________________C_______G__________D________________C___________G
|--------------------------------------------------------------------------|
|------------------10----------------------------------10-----12/15--------|
|-----7-----7-9/11----7-7--9^11-7---------7-----7-9/11----7-7-------9/11-7-|
|-7*9---9*7-------------------------9*7*9---9*7----------------------------|
|--------------------------------------------------------------------------|
|--------------------------------------------------------------------------|

Working for something that i cant touch and sometimes cant even believe in

Cradled by the hands of fate the faith that sometimes wraps around too tight, so tight
__D______________________________C____________________G________________D________C_G
|---|-------------------------|-3-|----------------|-3-|------------|----3*2---3-5-|
|-3-|-------------------------|-3-|----------------|-3-|------------|-3------3-3---|
|-2-|-------------------------|-0-|----------------|-0-|------------|-2--------0---|
|-0-|-------------------------|-2-|----------------|-0-|------------|-0--------2---|
|-0-|-------------------------|-3-|----------------|-2-|------------|-0--------3---|
|---|-------------------------|---|----------------|-3-|------------|--------------|


Chorus
(play Intro 2x)

Riff2
__D________________C_______G__________D_______________C________________________G
|--------------------------------------------------------------------------------|
|------------------10------------------------------------------------10----------|
|-----7-----7-9/11----7-7--9^11-7---------7-----7-9/11-7/10-11-12-13----9^11^9-7-|
|-7*9---9*7-------------------------9*7*9---9*7----------------------------------|
|--------------------------------------------------------------------------------|
|--------------------------------------------------------------------------------|

Well I look back at April

[ Tab from: http://www.guitartabs.cc/tabs/h/homesick/free_tab.html ]
|-----------------|
|-10--------------|
|--9^11^9---------|
|---------12-9-12-|
|-----------------|
|-----------------|

But she wont look back at me


___D
|------10-10----------10-----10-----|
|10^12-------12^10-10----8/7----6*7-|
|-----------------------------------|
|-----------------------------------|
|-----------------------------------|
|-----------------------------------|

So I pray in May for June to stay, but she just came to wash into the sea, away...
(play Intro)

Chorus

Solo
__C___________G_________D___________________________________C
|-------------------------------------------------------------------------10-|
|-----------------------------12-10------------------------------------10----|
|-9^11-9*7---7---7-9^11--9^11-------11-9---------9/11-7/9----9/11-2/11-------|
|----------9---9-------------------------12-9-12----------12-----------------|
|----------------------------------------------------------------------------|
|----------------------------------------------------------------------------|
Solo (continued)
__G______________________D_________________________C_____________G_______
|---------12----12-10----10-12-10--17^19-17--17^19-17--14-12/14-14-12-14-|
|------10----10-------12-10-10-10----------------------------------------|
|-2/11-------------------------------------------------------------------|
|------------------------------------------------------------------------|
|------------------------------------------------------------------------|
|------------------------------------------------------------------------|
Solo (continued2)
______D________________________________C__________G____________________D
|-----------------------------------------------10---------10-12----12-10-|
|-12-15-15-12-15--10----10-10----10----------10---------10-------10-------|
|----14-------14---9*11--9--9*11--9-----2/11-------2/11-------------------|
|-----------------------------------12------------------------------------|
|-------------------------------------------------------------------------|
|-------------------------------------------------------------------------|

Well I'm right inside the night
(play Intro)

Free....Free..Free...
__D_C_G_D_C_G_D_C_G___C_________G___________D
|---3-3---3-5---3-3-|-----------------------5---|
|-3-3-3-3-3---3-3-3-|-------------5^7^5-----5^7-|
|-2-0-0-2-0---2-0-0-|-4-5-7-4---7-------7-4-----|
|-0-2-0-0-2---0-2-0-|---------7-----------------|
|-0-3-2-0-3---0-3-2-|---------------------------|
|-----3-----------3-|---------------------------|


Comments