Homegrown - Give It Up Chords & Tabs

 

Give It Up Chords & Tabs

Homegrown Chords & Tabs

Version: 1 Type: Tab 0 ratings
1 star 2 stars 3 stars 4 stars 5 stars
comments

Give It Up Tab

   
intro once or twice 
Guitar 1
e|-5-5-5-7-7-7-4-4-4-7-7-7-7-7-4-4-5-5-5-7-7-7-4-4-4-7-7-7------
B|-5-5-5-5-5-5-5-5-5-5-5-5-5-5-5-5-5-5-5-5-5-5-5-5-5-5-5-5--4^

 Guitar 2
e|---------------------------------------------------------------------------|
B|---------------------------------------------------------------------------|
G|-------2-2-2-2-2-2-2-2-2-2-2-2-2-2-----------------------------------------|
D|-2-2-2-2-2-2-2-2-2-2-2-2-2-2-2-2-2-2-2-2-4-4-4-4-4-4-4-4-4-4-4-4-4---------|
A|-2-2-2-0-0-0-0-0-0-0-0-0-0-0-0-0-0-2-2-2-4-4-4-4-4-4-4-4-4-4-4-4-4---------|
E|-0-0-0-----------------------------0-0-0-2-2-2-2-2-2-2-2-2-2-2-2-2---------|
  pm....                             .....
[ Tab from: http://www.guitartabs.cc/tabs/h/homegrown/give_it_up_tab.html ]
VERSE
e|--------0~-----------------------------------------------------------------|
B|--------0~-----------------------------------------------------------------|
G|--------2~-----------------------------------------------------------------|
D|-2-2-2--2~-----------------------------------------------------------------|
A|-2-2-2--0~-----------------------------------------------------------------|
E|-0-0-0---------------------------------------------------------------------|
  pm....
          I turn you on like a stereo..............
CHORUS
e|-------------------------------------------------------------------|
B|-------------------------------------------------------------------|
G|-------2-2-2-2-2-2-2-2-2-2-2-2-2-2---------------------------------|
D|-2-2-2-2-2-2-2-2-2-2-2-2-2-2-2-2-2-2-2-2-4-4-4-4-4-4-4-4-4-4-4-4-4-|
A|-2-2-2-0-0-0-0-0-0-0-0-0-0-0-0-0-0-2-2-2-4-4-4-4-4-4-4-4-4-4-4-4-4-|
E|-0-0-0-----------------------------0-0-0-2-2-2-2-2-2-2-2-2-2-2-2-2-|
  pm....

e|-------------------------------------------------------------------|
B|-------------------------------------------------------------------|
G|-------2-2-2-2-2-2-2-2-2-2-2-2-2-2---------------------------------|
D|-2-2-2-2-2-2-2-2-2-2-2-2-2-2-2-2-2-2-2-2-4-4-4-4-4-4-4-4-4-4-4-4-4-|
A|-2-2-2-0-0-0-0-0-0-0-0-0-0-0-0-0-0-2-2-2-4-4-4-4-4-4-4-4-4-4-4-4-4-|
E|-0-0-0-----------------------------0-0-0-2-2-2-2-2-2-2-2-2-2-2-2-2-|

repeat intro once or twice
repeat verse
          We'll set a course for anywhere but here,
          So give it up now, give it up now

REPEAT CHORUS


BUILD IT UP Guitar 1
e|------------------------------------------------------------------|
B|------------------------------------------------------------------|
G|------------------------------------------------------------------|
D|---------------------------------------------------------------5*-|
A|-7-7-7-7-7-7-7-7-7-7-7-7-7-7-7-7-7-7-7-7-7-7-7-7-7-7-7-7-7x----5*-|
E|-4-4-4-4-4-4-4-4-4-4-4-4-4-4-4-4-5-5-5-5-5-5-5-5-5-5-5-5-5x-------|
  pm......................................................
it's hard to find thecherry tree without the bucket my friend
Comments