Home Town Hero - Bleeds In Blue Chords & Tabs

 

Bleeds In Blue Chords & Tabs

Home Town Hero Chords & Tabs

Version: 1 Type: Tab 0 ratings
1 star 2 stars 3 stars 4 stars 5 stars
comments

Bleeds In Blue Tab

   
#----------------------------------PLEASE NOTE--------------------------------#
#This file is the author's own work and represents their interpretation of the#
#song. You may only use this file for private study, scholarship, or research.#
#-----------------------------------------------------------------------------#
#-- File created with Instab - http://www.pconline.com/~smcarey/instab.html --#
#-----------------------------------------------------------------------------#

Author/Artist: Hometown Hero
Title: Bleeds in Blue
Album: Hometown Hero
Transcribed by: Justin
Email: JustMtnBk4@aol.com

Tuning: Drop Db (low to high Db Ab Db Gb Bb eb)

I believe this tab is perfect; 
I have seen others that are good but this 
one is in the proper tuning of Drop Db.
Enjoy, and email me with questions or comments.


Intro
------------------|-------------|-----------------|---------------------------
----------10------|-------7-5---|----------10-----|-------7-5-----------------
-------11----11---|-----6-------|-------11----11--|-----6---------------------
----12------------|---7---------|----12-----------|---7-----------------------
------------------|-------------|-----------------|---------------------------
------------------|-------------|-----------------|---------------------------
                                                                              

Fill 1
-------|------------------|--------|--------------------|---------------------
-------|------------------|--------|--------------------|---------------------
--7-7--|------------------|--------|--------------------|---------------------
--7-7--|--7--10--7--5--7--|---0-0--|---7--10--7--3--5---|---------------------
--5-5--|--7--10--7--5--7--|---0-0--|---7--10--7--3--5---|---------------------
--0-0--|--7--10--7--5--7--|---0-0--|---7--10--7--3--5---|---------------------
 
                                                                             
Verse
--------------|---------|-------------|---------|-------------|---------------
--------10----|-----7-5-|-------10----|-----7-5-|-------10----|-----7-5-------
-----11----11-|---6-----|----11----11-|---6-----|----11----11-|---6-----------
--12----------|-7-------|-12----------|-7-------|-12----------|-7-------------
--------------|---------|-------------|---------|-------------|---------------
--------------|---------|-------------|---------|-------------|---------------


Fill 2
-------------|----------------------------------------------------------------
-------------|----------------------------------------------------------------
---------7---|---------10-----------------------------------------------------
---5--5--5---|---8--8--8------------------------------------------------------
---5--5--5---|---8--8--8------------------------------------------------------
---5--5--5---|---8--8--8------------------------------------------------------
pm .  .          .  . 
                                                                              
[ Tab from: http://www.guitartabs.cc/tabs/h/home_town_hero/bleeds_in_blue_tab.html ]
Chorus
------------------------------------------------------------------------------
------------------------------------------------------------------------------
-----------------------------------7-7-7-7------------------------------------
---0-0-0-0----5-5-5-5---7-7-7-7----7-7-7-7------------------------------------
---0-0-0-0----5-5-5-5---7-7-7-7----5-5-5-5------------------------------------
---0-0-0-0----5-5-5-5---7-7-7-7-----------------------------------------------
                                                                              

------------------------------------------------------------------------------
------------------------------------------------------------------------------
---------------------------------7-7-7-7--------------------------------------
---0-0-0-0---5-5-5-5---7-7-7-7---7-7-7-7--------------------------------------
---0-0-0-0---5-5-5-5---7-7-7-7---5-5-5-5--------------------------------------
---0-0-0-0---5-5-5-5---7-7-7-7------------------------------------------------
                                                                              

-----------------|-----------------------|------------------------------------
-----------------|-----------------------|------------------------------------
-----------------|-----------------------|---7-7-7-7--------------------------
---5-5---0-0-0---|---7-7-7-7---0-0-0-0---|---7-7-7-7---5-5-5-5----7-7-7-7-----
---5-5---0-0-0---|---7-7-7-7---0-0-0-0---|---5-5-5-5---5-5-5-5----7-7-7-7-----
---5-5---0-0-0---|---7-7-7-7---0-0-0-0---|---0-0-0-0---5-5-5-5----7-7-7-7-----
                                                                            

Bridge 
----------------------|--------------|-----------|---------|------------------
----------------------|--------------|-----------|---------|------------------
----------------------|---------14---|-------10--|------7--|------7-----------
---8-8-8-8--8-8-8-8---|---------12---|-------8---|------5--|------5-----------
---8-8-8-8--8-8-8-8---|---12-12-12---|---8-8-8---|--5-5-5--|--5-5-5-----------
---8-8-8-8--8-8-8-8---|---12-12-12---|---8-8-8---|--5-5-5--|--5-5-5-----------
pm     .............      .   .          . .        . .       . .           

-------------|------------|---------------------------------------------------
-------------|------------|---------------------------------------------------
---------14--|-------10---|---------------------------------------------------
---------12--|-------8----|--5-5-5-5---8-8-8-8---7-7-7-7-7-7-7-7-7------------
---12-12-12--|---8-8-8----|--5-5-5-5---8-8-8-8---7-7-7-7-7-7-7-7-7------------
---12-12-12--|---8-8-8----|--5-5-5-5---8-8-8-8---7-7-7-7-7-7-7-7-7------------
pm .  .          . .                                 .........let off      


Post Chorus
------------------------------------------------------------------------------
------------------------------------------------------------------------------
-----------------------7-7-7-7------------------------------------------------
---8-8-8-8-8-8-8-8-----7-7-7-7---5-5-5-5---7-7-7-7----0-----------------------
---8-8-8-8-8-8-8-8-----5-5-5-5---5-5-5-5---7-7-7-7----0--(let ring)-----------
---8-8-8-8-8-8-8-8---------------5-5-5-5---7-7-7-7----0-----------------------
pm   .............                                               


Outro
------------------|--------------|-------5------------------------------------
----------10------|-------7--5---|-------5------------------------------------
-------11----11---|-----6--------|------7-------------------------------------
----12------------|---7----------|-----7--------------------------------------
------------------|--------------|----5---------------------------------------
------------------|--------------|--------------------------------------------
                                                                              

Order:
Intro
Fill 1
Verse 
Fill 2 
Verse 
Fill 2
Chorus
Fill 1
Verse
Fill 2
Verse
Fill 2 (x2)
Chorus
Bridge
Chorus
Post Chorus
Fill 1
Outro
Comments