Home Made Kazoku - Thank You Chords & Tabs

 

Home Made Kazoku Chords & Tabs

Version: 3 Type: Tab 0 ratings
1 star 2 stars 3 stars 4 stars 5 stars
comments

Thank You Tab

   
Umm... Yeah. I got this song from the dude that tabbed it before and I think this 
version is more... Correct.

Intro-

(guitar1)
E----------------------------------------------------------------------|
B--------7-------7--------7-------8\7------5-------5--------5-------5--|
G------7---7----7-------7---7----7-------6---6----6-------6---6----6---|(x2)
D----5-------5--------5-------5--------7-------7--------7-------7------|
A--7-----------7----0-----------0-----5----------5---------------------|
E------------------------------------------------------7---------7-----|

(guitar2) 0:07-
E----------------------------------------------------------------------|
B------------7--8--7--10----8--7---------------------------------------|
G------7--9-----------------------7------------------------------------|
D--7\9-----------------------------------------------------------------|
A----------------------------------------------------------------------|
E----------------------------------------------------------------------|

(guitar3) 0:09 -
E--14-12-14---------14-12-14---------12-10-12---------7-9-10-9-7/9-----|
B--x--x--x----------x--x--x----------x--x--x----------x-x-x--x-x/x-----|
G--11-9--11---------11-9--11---------9--7--9----------4-6-7--6-4/6-----|(x1)
D----------------------------------------------------------------------|
A----------------------------------------------------------------------|
E----------------------------------------------------------------------|


Chorus-  0:18

(i think you can play this part as chords instead of picking it same with the rest)

G1
E----------------------------------------------------------------------|
B--------7-------7--------7-------8\7------5-------5--------5-------5--|
G------7---7----7-------7---7----7-------6---6----6-------6---6----6---|(x2)
D----5-------5--------5-------5--------7-------7--------7-------7------|
A--7-----------7----0-----------0-----5----------5---------------------|
E------------------------------------------------------7---------7-----|

G2 (play around with these)
E--14-12-14---------14-12-14---------12-10-12---------7-9-10-9-7/9-----|
B--x--x--x----------x--x--x----------x--x--x----------x-x-x--x-x/x-----|
G--11-9--11---------11-9--11---------9--7--9----------4-6-7--6-4/6-----|(x2)
D----------------------------------------------------------------------|
A----------------------------------------------------------------------|
E----------------------------------------------------------------------|


Verse 1

-strum each chord once
[ Tab from: http://www.guitartabs.cc/tabs/h/home_made_kazoku/thank_you_tab_ver_3.html ]
E-(5)--------------(5)--------------(5)--------------(5)---------------|
B--7----------------7----------------5----------------5----------------|
G--7----------------7----------------6----------------6----------------|
D--5----------------5----------------7----------------7----------------|
A--7----------------0----------------5---------------------------------|
E-----------------------------------------------------7----------------|
Chorus
G1
E----------------------------------------------------------------------|
B--------7-------7--------7-------8\7------5-------5--------5-------5--|
G------7---7----7-------7---7----7-------6---6----6-------6---6----6---|(x2)
D----5-------5--------5-------5--------7-------7--------7-------7------|
A--7-----------7----0-----------0-----5----------5---------------------|
E------------------------------------------------------7---------7-----|

G2
E--14-12-14---------14-12-14---------12-10-12---------7-9-10-9-7/9-----|
B--x--x--x----------x--x--x----------x--x--x----------x-x-x--x-x/x-----|
G--11-9--11---------11-9--11---------9--7--9----------4-6-7--6-4/6-----|
D----------------------------------------------------------------------|
A----------------------------------------------------------------------|
E----------------------------------------------------------------------|

Verse 2

E-(5)--------------(5)--------------(5)--------------(5)---------------|
B--7----------------7----------------5----------------5----------------|
G--7----------------7----------------6----------------6----------------|
D--5----------------5----------------7----------------7----------------|
A--7----------------0----------------5---------------------------------|
E-----------------------------------------------------7----------------|
*repeat chorus

Verse 3

G1
E----------------------------------------------------------------------|
B--------7-------7--------7-------8\7------5-------5--------5-------5--|
G------7---7----7-------7---7----7-------6---6----6-------6---6----6---|
D----5-------5--------5-------5--------7-------7--------7-------7------|
A--7-----------7----0-----------0-----5----------5---------------------|
E------------------------------------------------------7---------7-----|

G2
E-(5)--------------(5)--------------(5)--------------(5)---------------|
B--7----------------7----------------5----------------5----------------|
G--7----------------7----------------6----------------6----------------|
D--5----------------5----------------7----------------7----------------|
A--7----------------0----------------5---------------------------------|
E-----------------------------------------------------7----------------|

ending part
G2 at 4:01
E----------------------------------------------------------------------|
B------------7--8--7--10----8--7---------------------------------------|
G------7--9-----------------------7------------------------------------|
D--7\9-----------------------------------------------------------------|
A----------------------------------------------------------------------|
E----------------------------------------------------------------------|

G1
E----------------------------------------------------------------------|
B--------7-------7--------7-------8\7------5-------5--------5-------5--|
G------7---7----7-------7---7----7-------6---6----6-------6---6----6---|(x2)
D----5-------5--------5-------5--------7-------7--------7-------7------|
A--7-----------7----0-----------0-----5----------5---------------------|
E------------------------------------------------------7---------7-----|

*repeat chorus until end
Comments