Home Made Kazoku - Thank You Chords & Tabs

 

Home Made Kazoku Chords & Tabs

Version: 2 Type: Tab 0 ratings
1 star 2 stars 3 stars 4 stars 5 stars
comments

Thank You Tab

Intro-

(guitar1)
E----------------------------------------------------------------------|
B--------7-------7--------7-------7--------5-------7--------5-------7--|
G------7---7----7-------7---7----7-------6---6----7-------6---6----7---| 
D----5-------5--------5-------5--------7-------7--------7-------7------|
A--7-----------7----0-----------0----5-----------5----5-----------5----|
E----------------------------------------------------------------------|
(guitar2)
E----------------------------------------------------------------------|
B----------------------------------------------------------------------|
G----------7--8--7--10--8--7-------------------------------------------|
D------7--9-------------------7----------------------------------------|
A-7--9-----------------------------------------------------------------|
E----------------------------------------------------------------------|


(guitar1)
E----------------------------------------------------------------------|
B--------7-------7--------7-------7--------5-------7-----------5--7----|
G------7---7----7-------7---7----7-------6---6----7--------------------| 
D----5-------5--------5-------5--------7-------7--------------------7--|
A--7-----------7----0-----------0----5-----------5---------------------|
E----------------------------------------------------------------------|
(guitar2) 
E--14-12-14---------14-12-14---------12-10-12---------12-10-12---------|
B--x--x--x----------x--x--x----------x--x--x----------x--x--x----------|
G--11-9--11---------11-9--11---------9--7--9----------9--7--9----------| 
D----------------------------------------------------------------------|
A----------------------------------------------------------------------|
E----------------------------------------------------------------------|

[ Tab from: http://www.guitartabs.cc/tabs/h/home_made_kazoku/thank_you_tab_ver_2.html ]
(all guitars) 
E--14-12-14---------14-12-14---------12-10-12---------7-9-10-9-7/9-----|
B--x--x--x----------x--x--x----------x--x--x----------x-x-x--x-x/x-----|
G--11-9--11---------11-9--11---------9--7--9----------4-6-7--6-4/6-----|  
D----------------------------------------------------------------------| (2x)..
A----------------------------------------------------------------------|      .
E----------------------------------------------------------------------|      .(3x)
(all guitars)                                                                 .
E----------------------------------------------------------------------|      .
B--7----------------7----------------5----------------5----------------|      .
G--7----------------7----------------6----------------6----------------| (4x)..
D--5----------------5----------------7----------------7----------------|
A--7----------------0----------------5----------------5----------------|
E----------------------------------------------------------------------|



(guitar1)
E----------------------------------------------------------------------|
B--------7-------7--------7-------7--------5-------7--------5-------7--|
G------7---7----7-------7---7----7-------6---6----7-------6---6----7---| (3x)
D----5-------5--------5-------5--------7-------7--------7-------7------|
A--7-----------7----0-----------0----5-----------5----5-----------5----|
E----------------------------------------------------------------------|
(guitar2)
E----------------------------------------------------------------------|
B----------------------------------------------------------------------|
G----------7--8--7--10--8--7-------------------------------------------| (1x)
D------7--9-------------------7----------------------------------------|
A--7--9----------------------------------------------------------------|
E----------------------------------------------------------------------|


(all guitars) 
E--14-12-14---------14-12-14---------12-10-12---------12-10-12---------|
B--x--x--x----------x--x--x----------x--x--x----------x--x--x----------|
G--11-9--11---------11-9--11---------9--7--9----------9--7--9----------| (6x)
D----------------------------------------------------------------------|
A----------------------------------------------------------------------|
E----------------------------------------------------------------------|

(guitar1)
E----------------------------------------------------------------------|
B--------7-------7--------7-------7--------5-------7--------5-------7--|
G------7---7----7-------7---7----7-------6---6----7-------6---6----7---| (2x)
D----5-------5--------5-------5--------7-------7--------7-------7------|
A--7-----------7----0-----------0----5-----------5----5-----------5----|
E----------------------------------------------------------------------|
(guitar2)
E----------------------------------------------------------------------|
B----------------------------------------------------------------------|
G----------7--8--7--10--8--7-------------------------------------------| (1x)
D------7--9-------------------7----------------------------------------|
A-7--9-----------------------------------------------------------------|
E----------------------------------------------------------------------|
Comments