Home Made Kazoku - Thank You Chords & Tabs

 

Thank You Chords & Tabs

Home Made Kazoku Chords & Tabs

Version: 1 Type: Tab 0 ratings
1 star 2 stars 3 stars 4 stars 5 stars
comments

Thank You Tab

   
-Thank You

This song is from 'Bleach'(anime) by "Home Made Kazoku"
Well no1 bothers tabbing songs such as these so i mite as well
start it off. If this is rong fix it.Btw, this is the full version
so yeah if you dnt have it, GET IT! hehe enjoy!

Tunning EADGBE


Intro-

(guitar1)
E----------------------------------------------------------------------|
B--------7-------7--------7-------7--------5-------7--------5-------7--|
G------7---7----7-------7---7----7-------6---6----7-------6---6----7---| (x2)
D----9-------9--------9-------9--------7-------7--------7-------7------|
A--7-----------7----0-----------0----5-----------5----5-----------5----|
E----------------------------------------------------------------------|

(guitar2) 0:09 -
E--14-12-14---------14-12-14---------12-10-12---------7-9-10-9-7/9-----|
B--x--x--x----------x--x--x----------x--x--x----------x-x-x--x-x/x-----|
G--11-9--11---------11-9--11---------9--7--9----------4-6-7--6-4/6-----| (x1)
D----------------------------------------------------------------------|
A----------------------------------------------------------------------|
E----------------------------------------------------------------------|


Chorus-  0:18

G1
E----------------------------------------------------------------------|
B--------7-------7--------7-------7--------5-------7--------5-------7--|
G------7---7----7-------7---7----7-------6---6----7-------6---6----7---| (x2)
D----9-------9--------9-------9--------7-------7--------7-------7------|
A--7-----------7----0-----------0----5-----------5----5-----------5----|
E----------------------------------------------------------------------|

G2 (play around with these)
E--14-12-14---------14-12-14---------12-10-12---------7-9-10-9-7/9-----|
B--x--x--x----------x--x--x----------x--x--x----------x-x-x--x-x/x-----|
G--11-9--11---------11-9--11---------9--7--9----------4-6-7--6-4/6-----| (x2)
D----------------------------------------------------------------------|
A----------------------------------------------------------------------|
E----------------------------------------------------------------------|


Verse 1

-strum each chord once

E-(7)--------------(7)--------------(5)--------------(5)-------------|
B--7----------------7----------------5----------------5--------------|
G--7----------------7----------------6----------------6--------------|
D--9----------------9----------------7----------------7--------------|
A--7----------------0----------------5----------------5--------------|
E--------------------------------------------------------------------|
Chorus
[ Tab from: http://www.guitartabs.cc/tabs/h/home_made_kazoku/thank_you_tab.html ]
G1
E----------------------------------------------------------------------|
B--------7-------7--------7-------7--------5-------7--------5-------7--|
G------7---7----7-------7---7----7-------6---6----7-------6---6----7---|
D----9-------9--------9-------9--------7-------7--------7-------7------|
A--7-----------7----0-----------0----5-----------5----5-----------5----|
E----------------------------------------------------------------------|

G2
E--14-12-14---------14-12-14---------12-10-12---------7-9-10-9-7/9-----|
B--x--x--x----------x--x--x----------x--x--x----------x-x-x--x-x/x-----|
G--11-9--11---------11-9--11---------9--7--9----------4-6-7--6-4/6-----|
D----------------------------------------------------------------------|
A----------------------------------------------------------------------|
E----------------------------------------------------------------------|

Verse 2


E-(7)--------------(7)--------------(5)--------------(5)-------------|
B--7----------------7----------------5----------------5--------------|
G--7----------------7----------------6----------------6--------------|
D--9----------------9----------------7----------------7--------------|
A--7----------------0----------------5----------------5--------------|
E--------------------------------------------------------------------|
*repeat chorus

Verse 3

G1
E----------------------------------------------------------------------|
B--------7-------7--------7-------7--------5-------7--------5-------7--|
G------7---7----7-------7---7----7-------6---6----7-------6---6----7---|
D----9-------9--------9-------9--------7-------7--------7-------7------|
A--7-----------7----0-----------0----5-----------5----5-----------5----|
E----------------------------------------------------------------------|

G2
E-(7)--------------(7)--------------(5)--------------(5)-------------|
B--7----------------7----------------5----------------5--------------|
G--7----------------7----------------6----------------6--------------|
D--9----------------9----------------7----------------7--------------|
A--7----------------0----------------5----------------5--------------|
E--------------------------------------------------------------------|

E----------------------------------------------------------------------|
B--------7-------7--------7-------7--------5-------7--------5-------7--|
G------7---7----7-------7---7----7-------6---6----7-------6---6----7---|
D----9-------9--------9-------9--------7-------7--------7-------7------|
A--7-----------7----0-----------0----5-----------5----5-----------5----|
E----------------------------------------------------------------------|

*repeat chorus until end
-743
Comments