Home Grown - Your Past Chords & Tabs

 

Your Past Chords & Tabs

Home Grown Chords & Tabs

Version: 2 Type: Tab 0 ratings
1 star 2 stars 3 stars 4 stars 5 stars
comments

Your Past Tab

Home grown
your past
Tabbed by Jenson

/ = SLIDE UP   \ = SLIDE DOWN   h = HAMMER ON   p = PULL OFF  m = PALM MUTE

Tune down a half-step

INTRO:
Both guitars
e-|--15-15-15-15-15-15--|
B-|---------------------|
G-|--12-12-12-12-12-12--|
D-|---------------------|  play 6 times
A-|--10-10-10-10-10-10--|
E-|---------------------|

Guitar 1
e-|------------------------------------------------------------11--------------|
B-|-----------------------------------------------------11-13b----11----11-----|
G-|--------------------------------------10-10-10-12-13--------------13----13--|
D-|-----------10-11-13----------10-11-13---------------------------------------|
A-|--11-11-11----------11-11-11------------------------------------------------|
E-|----------------------------------------------------------------------------|

Guitar 2
e-|------------------------------------------------------------|
B-|------------------------------------------------------------|
G-|--------------6-6-6-6-6-6-10-10-10-10-10-10-10-6-6-6-6-6-6--|
D-|--6-6-6-6-6-6-6-6-6-6-6-6-10-10-10-10-10-10-10-6-6-6-6-6-6--|
A-|--6-6-6-6-6-6-4-4-4-4-4-4--8--8--8--8--8--8--8-4-4-4-4-4-4--|
E-|--4-4-4-4-4-4-----------------------------------------------|

Guitar 1
e-|-----------12-----12----12----13----13----13-15--|
B-|-----11-13-----13----13----14----14----14--------|
G-|--13---------------------------------------------|
D-|-------------------------------------------------|
A-|-------------------------------------------------|
E-|-------------------------------------------------|

Guitar 2
e-|---------------------------------------------------|
B-|---------------------------------------------------|
G-|--------------------------6-6-6-6-6-6-8-8-8-8-8-8--|
D-|--6-6-6-6-6-6-2-2-2-2-2-2-6-6-6-6-6-6-8-8-8-8-8-8--|
A-|--6-6-6-6-6-6-2-2-2-2-2-2-4-4-4-4-4-4-6-6-6-6-6-6--|
E-|--4-4-4-4-4-4-0-0-0-0-0-0--------------------------|

Guitar 1
e-|------------------------------------------------------------11--------------|
B-|-----------------------------------------------------11-13b----11----11-----|
G-|--------------------------------------10-10-10-12-13--------------13----13--|
D-|-----------10-11-13----------10-11-13---------------------------------------|
A-|--11-11-11----------11-11-11------------------------------------------------|
E-|----------------------------------------------------------------------------|

Guitar 2
e-|------------------------------------------------------------|
B-|------------------------------------------------------------|
G-|--------------6-6-6-6-6-6-10-10-10-10-10-10-10-6-6-6-6-6-6--|
D-|--6-6-6-6-6-6-6-6-6-6-6-6-10-10-10-10-10-10-10-6-6-6-6-6-6--|
A-|--6-6-6-6-6-6-4-4-4-4-4-4--8--8--8--8--8--8--8-4-4-4-4-4-4--|
E-|--4-4-4-4-4-4-----------------------------------------------|

Guitar 1
e-|-----------12-----12----12----13----13----13-15--|
B-|-----11-13-----13----13----14----14----14--------|
G-|--13---------------------------------------------|
D-|-------------------------------------------------|
A-|-------------------------------------------------|
E-|-------------------------------------------------|

Guitar 2
e-|---------------------------------------------------|
B-|---------------------------------------------------|
G-|--------------------------6-6-6-6-6-6-8-8-8-8-8-8--|
D-|--6-6-6-6-6-6-2-2-2-2-2-2-6-6-6-6-6-6-8-8-8-8-8-8--|
A-|--6-6-6-6-6-6-2-2-2-2-2-2-4-4-4-4-4-4-6-6-6-6-6-6--|
E-|--4-4-4-4-4-4-0-0-0-0-0-0--------------------------|

VERSE:
(Clean tone)
"26 hours, 2000 miles away..."
e-|--------------------------------------------4--|
B-|------------------6-----------9-------------5--|
G-|-------5------------6-----------10--------6----|
D-|---------6------6-----6----10------10---6------|
A-|-----6-----6-4----------8-------------4--------|
E-|--4--------------------------------------------|

"A broken trust severed us."
e-|------------------------------------------------|
B-|-----------------------------6-----------9p8----|
G-|-------5----------9------------6-------8-----8--|
D-|---------6----------9------6-----6---8----------|
A-|-----6-----6----7-----7-4----------6------------|
E-|--4----------0----------------------------------|

(With distortion)
"An ocean of secrets that you left behind"
e-|---------------------------------------------------|
B-|---------------------------------------------------|
G-|--------------6-6-6-6-6-6-------------6-6-6-6-6-6--|
D-|--6-6-6-6-6-6-6-6-6-6-6-6-3-3-3-3-3-3-6-6-6-6-6-6--|
A-|--6-6-6-6-6-6-4-4-4-4-4-4-3-3-3-3-3-3-4-4-4-4-4-4--|
E-|--4-4-4-4-4-4-------------1-1-1-1-1-1--------------|
     m m m m m m m m m m m m m m m m m m m m m m m m

"Unlocked by false assumptions."
e-|---------------------------------------------------|
B-|---------------------------------------------------|
G-|---------------------------------------------------|
D-|--6-6-6-6-6-6-2-2-2-2-2-2---6---6---6---8---8---8--|
A-|--6-6-6-6-6-6-2-2-2-2-2-2-4---4---4---6---6---6----|
E-|--4-4-4-4-4-4-0-0-0-0-0-0--------------------------|
     m m m m m m m m m m m m

PRE-CHORUS:
"I'm stupid..."
e-|-----------------------------------------------|
B-|-----------------------------------------------|
G-|--6-6-6-6-----9-9-9-9--------------------------|
D-|--6-6-6-6-----9-9-9-9-----6-6-6-6-----6-6-6-6--|
A-|--4-4-4-4-----7-7-7-7-----6-6-6-6-----6-6-6-6--|
E-|--------------------------4-4-4-4-----4-4-4-4--|

"And I shouldn't have..."
e-|---------------------------------------------------|
B-|---------------------------------------------------|
G-|--6-6-6-6-----9-9-9-9-----8-8-8-8-8-8-9-9-9-9-9-9--|
D-|--6-6-6-6-----9-9-9-9-----8-8-8-8-8-8-9-9-9-9-9-9--|
A-|--4-4-4-4-----7-7-7-7-----6-6-6-6-6-6-7-7-7-7-7-7--|
E-|---------------------------------------------------|

CHORUS:
"Now that you're gone..."
e-|---------------------------------------------------|
B-|---------------------------------------------------|
G-|--------------6-6-6-6-6-6-------------8-8-8-8-8-8--|
D-|--3-3-3-3-3-3-6-6-6-6-6-6-6-6-6-6-6-6-8-8-8-8-8-8--|
A-|--3-3-3-3-3-3-4-4-4-4-4-4-6-6-6-6-6-6-6-6-6-6-6-6--|
E-|--1-1-1-1-1-1-------------4-4-4-4-4-4--------------|

"I wish I could turn back time."
e-|---------------------------------------------------|
B-|---------------------------------------------------|
G-|--6-6-6-6-6-6-6-6-6-6-6-6-8-8-8-8-8-8-8-8-8-8-8-8--|
D-|--6-6-6-6-6-6-6-6-6-6-6-6-8-8-8-8-8-8-8-8-8-8-8-8--|
A-|--4-4-4-4-4-4-4-4-4-4-4-4-6-6-6-6-6-6-6-6-6-6-6-6--|
E-|---------------------------------------------------|

"I'm biting my tongue..."
e-|---------------------------------------------------|
B-|---------------------------------------------------|
G-|--------------6-6-6-6-6-6-5-5-5-5-5-5--------------|
D-|--3-3-3-3-3-3-6-6-6-6-6-6-5-5-5-5-5-5-5-5-5-5-5-5--|
A-|--3-3-3-3-3-3-4-4-4-4-4-4-3-3-3-3-3-3-5-5-5-5-5-5--|
E-|--1-1-1-1-1-1-------------------------3-3-3-3-3-3--|

"I know I shouldn't judge you..."
e-|---------------------------------------------------|
B-|---------------------------------------------------|
G-|--6-6-6-6-6-6-6-6-6-6-6-6-8-8-8-8-8-8-8-8-8-8-8-8--|
D-|--6-6-6-6-6-6-6-6-6-6-6-6-8-8-8-8-8-8-8-8-8-8-8-8--|
A-|--4-4-4-4-4-4-4-4-4-4-4-4-6-6-6-6-6-6-6-6-6-6-6-6--|
E-|---------------------------------------------------|

Guitar 1
e-|------------------------------------------------------------11--------------|
B-|-----------------------------------------------------11-13b----11----11-----|
G-|--------------------------------------10-10-10-12-13--------------13----13--|
D-|-----------10-11-13----------10-11-13---------------------------------------|
A-|--11-11-11----------11-11-11------------------------------------------------|
E-|----------------------------------------------------------------------------|

Guitar 2
e-|------------------------------------------------------------|
B-|------------------------------------------------------------|
G-|--------------6-6-6-6-6-6-10-10-10-10-10-10-10-6-6-6-6-6-6--|
D-|--6-6-6-6-6-6-6-6-6-6-6-6-10-10-10-10-10-10-10-6-6-6-6-6-6--|
A-|--6-6-6-6-6-6-4-4-4-4-4-4--8--8--8--8--8--8--8-4-4-4-4-4-4--|
E-|--4-4-4-4-4-4-----------------------------------------------|

Guitar 1
e-|-----------12-----12----12----13----13----13-15--|
B-|-----11-13-----13----13----14----14----14--------|
G-|--13---------------------------------------------|
D-|-------------------------------------------------|
A-|-------------------------------------------------|
E-|-------------------------------------------------|

Guitar 2
e-|---------------------------------------------------|
B-|---------------------------------------------------|
G-|--------------------------6-6-6-6-6-6-8-8-8-8-8-8--|
D-|--6-6-6-6-6-6-2-2-2-2-2-2-6-6-6-6-6-6-8-8-8-8-8-8--|
A-|--6-6-6-6-6-6-2-2-2-2-2-2-4-4-4-4-4-4-6-6-6-6-6-6--|
E-|--4-4-4-4-4-4-0-0-0-0-0-0--------------------------|

VERSE:
(Clean tone)
"Jealousy hit me..."
e-|--------------------------------------------4--|
B-|------------------6-----------9-------------5--|
G-|-------5------------6-----------10--------6----|
D-|---------6------6-----6----10------10---6------|
A-|-----6-----6-4----------8-------------4--------|
E-|--4--------------------------------------------|

"when I heard that you..."
e-|------------------------------------------------|
B-|-----------------------------6-----------9p8----|
G-|-------5----------9------------6-------8-----8--|
D-|---------6----------9------6-----6---8----------|
A-|-----6-----6----7-----7-4----------6------------|
E-|--4----------0----------------------------------|
[ Tab from: http://www.guitartabs.cc/tabs/h/home_grown/your_past_tab_ver_2.html ]
(With distortion)
"It's none of my business..."
e-|---------------------------------------------------|
B-|---------------------------------------------------|
G-|--------------6-6-6-6-6-6-------------6-6-6-6-6-6--|
D-|--6-6-6-6-6-6-6-6-6-6-6-6-3-3-3-3-3-3-6-6-6-6-6-6--|
A-|--6-6-6-6-6-6-4-4-4-4-4-4-3-3-3-3-3-3-4-4-4-4-4-4--|
E-|--4-4-4-4-4-4-------------1-1-1-1-1-1--------------|
     m m m m m m m m m m m m m m m m m m m m m m m m

"I was scared..."
e-|---------------------------------------------------|
B-|---------------------------------------------------|
G-|---------------------------------------------------|
D-|--6-6-6-6-6-6-2-2-2-2-2-2---6---6---6---8---8---8--|
A-|--6-6-6-6-6-6-2-2-2-2-2-2-4---4---4---6---6---6----|
E-|--4-4-4-4-4-4-0-0-0-0-0-0--------------------------|
     m m m m m m m m m m m m

PRE-CHORUS:
"I'm stupid..."
e-|-----------------------------------------------|
B-|-----------------------------------------------|
G-|--6-6-6-6-----9-9-9-9--------------------------|
D-|--6-6-6-6-----9-9-9-9-----6-6-6-6-----6-6-6-6--|
A-|--4-4-4-4-----7-7-7-7-----6-6-6-6-----6-6-6-6--|
E-|--------------------------4-4-4-4-----4-4-4-4--|

"And I shouldn't have..."
e-|---------------------------------------------------|
B-|---------------------------------------------------|
G-|--6-6-6-6-----9-9-9-9-----8-8-8-8-8-8-9-9-9-9-9-9--|
D-|--6-6-6-6-----9-9-9-9-----8-8-8-8-8-8-9-9-9-9-9-9--|
A-|--4-4-4-4-----7-7-7-7-----6-6-6-6-6-6-7-7-7-7-7-7--|
E-|---------------------------------------------------|

CHORUS:
"Now that you're gone..."
e-|---------------------------------------------------|
B-|---------------------------------------------------|
G-|--------------6-6-6-6-6-6-------------8-8-8-8-8-8--|
D-|--3-3-3-3-3-3-6-6-6-6-6-6-6-6-6-6-6-6-8-8-8-8-8-8--|
A-|--3-3-3-3-3-3-4-4-4-4-4-4-6-6-6-6-6-6-6-6-6-6-6-6--|
E-|--1-1-1-1-1-1-------------4-4-4-4-4-4--------------|

"I wish I could turn back time."
e-|---------------------------------------------------|
B-|---------------------------------------------------|
G-|--6-6-6-6-6-6-6-6-6-6-6-6-8-8-8-8-8-8-8-8-8-8-8-8--|
D-|--6-6-6-6-6-6-6-6-6-6-6-6-8-8-8-8-8-8-8-8-8-8-8-8--|
A-|--4-4-4-4-4-4-4-4-4-4-4-4-6-6-6-6-6-6-6-6-6-6-6-6--|
E-|---------------------------------------------------|

"I'm biting my tongue..."
e-|---------------------------------------------------|
B-|---------------------------------------------------|
G-|--------------6-6-6-6-6-6-5-5-5-5-5-5--------------|
D-|--3-3-3-3-3-3-6-6-6-6-6-6-5-5-5-5-5-5-5-5-5-5-5-5--|
A-|--3-3-3-3-3-3-4-4-4-4-4-4-3-3-3-3-3-3-5-5-5-5-5-5--|
E-|--1-1-1-1-1-1-------------------------3-3-3-3-3-3--|

"I know I shouldn't judge you..."
e-|---------------------------------------------------|
B-|---------------------------------------------------|
G-|--6-6-6-6-6-6-6-6-6-6-6-6-8-8-8-8-8-8-8-8-8-8-8-8--|
D-|--6-6-6-6-6-6-6-6-6-6-6-6-8-8-8-8-8-8-8-8-8-8-8-8--|
A-|--4-4-4-4-4-4-4-4-4-4-4-4-6-6-6-6-6-6-6-6-6-6-6-6--|
E-|---------------------------------------------------|

SOLO:
Guitar 1
e-|------------------------------------------------------|
B-|------------------------------------------------------|
G-|--------12-13--12--13--12h13p12----13p12----15-17-15--|
D-|--13-15-------------------------13-------13-----------|
A-|------------------------------------------------------|
E-|------------------------------------------------------|

Guitar 2
e-|-----------------------------------------------|
B-|-----------------------------------------------|
G-|--------------6-6-6-6--------------------------|
D-|--3-3-3-3-----6-6-6-6-----3-3-3-3-----6-6-6-6--|
A-|--3-3-3-3-----4-4-4-4-----3-3-3-3-----6-6-6-6--|
E-|--1-1-1-1-----------------1-1-1-1-----4-4-4-4--|

Guitar 1
e-|---------------------------------------------------------------------------|
B-|---------------------------------------------------------------------------|
G-|--17-18-15-17-13-15-12-13-10-12-13-15----------------------------11-11-11--|
D-|--------------------------------------13-13-13-13-13-13-14-14-14-----------|
A-|---------------------------------------------------------------------------|
E-|---------------------------------------------------------------------------|

Guitar 2
e-|------------------------------------------------------|
B-|------------------------------------------------------|
G-|--------------6-6-6-6-----8-8-8-8-8-8-9-9-9-11-11-11--|
D-|--3-3-3-3-----6-6-6-6-----8-8-8-8-8-8-9-9-9-11-11-11--|
A-|--3-3-3-3-----4-4-4-4-----6-6-6-6-6-6-7-7-7--9--9--9--|
E-|--1-1-1-1---------------------------------------------|

Guitar 1
e-|------------------------------------|
B-|------------------------------------|
G-|--13--12--13--18-17----18-17----20--|
D-|--------------------18-------18-----|
A-|------------------------------------|
E-|------------------------------------|

Guitar 2
e-|-----------------------------------------------|
B-|-----------------------------------------------|
G-|--------------6-6-6-6--------------------------|
D-|--3-3-3-3-----6-6-6-6-----3-3-3-3-----6-6-6-6--|
A-|--3-3-3-3-----4-4-4-4-----3-3-3-3-----6-6-6-6--|
E-|--1-1-1-1-----------------1-1-1-1-----4-4-4-4--|

Guitar 1
e-|-----------------15-16----15-16-18-20--18--19--21--20--|(let ring)
B-|--16h18p16----18-------18------------------------------|
G-|-----------17------------------------------------------|
D-|-------------------------------------------------------|
A-|-------------------------------------------------------|
E-|-------------------------------------------------------|

Guitar 2
e-|------------------------------------------------------|
B-|------------------------------------------------------|
G-|--------------6-6-6-6-----8-8-8-8-8-8-9-9-9-11-11-11--|
D-|--3-3-3-3-----6-6-6-6-----8-8-8-8-8-8-9-9-9-11-11-11--|
A-|--3-3-3-3-----4-4-4-4-----6-6-6-6-6-6-7-7-7--9--9--9--|
E-|--1-1-1-1---------------------------------------------|
END SOLO

OUTRO:
Guitar 1
e-|--20--|(let ring)
B-|------|
G-|------|
D-|------|
A-|------|
E-|------|

Guitar 2
e-|---------------------------------------------------|
B-|---------------------------------------------------|
G-|--8-8-8-8-8-8-6-6-6-6-6-6-4-4-4-4-4-4-3-3-3-3-3-3--|
D-|---------------------------------------------------|
A-|--6-6-6-6-6-6-4-4-4-4-4-4-2-2-2-2-2-2-1-1-1-1-1-1--|
E-|---------------------------------------------------|

Guitar 1
e-|---------------------------------------------------|
B-|---------------------------------------------------|
G-|---------------------------------------------------|
D-|--6-6-6-6-6-6-6-6-6-6-6-6-6-6-6-6-6-6-6-6-6-6-6-6--|
A-|--6-6-6-6-6-6-6-6-6-6-6-6-6-6-6-6-6-6-6-6-6-6-6-6--|
E-|--4-4-4-4-4-4-4-4-4-4-4-4-4-4-4-4-4-4-4-4-4-4-4-4--|
     m m m m m m m m m m m m m m m m m m m m m m m m

Guitar 2
e-|---------------------------------------------------|
B-|---------------------------------------------------|
G-|--8-8-8-8-8-8-6-6-6-6-6-6-4-4-4-4-4-4-3-3-3-3-3-3--|
D-|---------------------------------------------------|
A-|--6-6-6-6-6-6-4-4-4-4-4-4-2-2-2-2-2-2-1-1-1-1-1-1--|
E-|---------------------------------------------------|

Guitar 1
e-|---------------------------------------------------|
B-|---------------------------------------------------|
G-|--------------6-6-6-6-6-6--------------------------|
D-|--6-6-6-6-6-6-6-6-6-6-6-6-2-2-2-2-2-2-4-4-4-4-4-4--|
A-|--6-6-6-6-6-6-4-4-4-4-4-4-2-2-2-2-2-2-4-4-4-4-4-4--|
E-|--4-4-4-4-4-4-------------0-0-0-0-0-0-2-2-2-2-2-2--|

Guitar 2
e-|---------------------------------------------------|
B-|---------------------------------------------------|
G-|--8-8-8-8-8-8-6-6-6-6-6-6-4-4-4-4-4-4-3-3-3-3-3-3--|
D-|---------------------------------------------------|
A-|--6-6-6-6-6-6-4-4-4-4-4-4-2-2-2-2-2-2-1-1-1-1-1-1--|
E-|---------------------------------------------------|

Guitar 1
e-|---------------------------------------------------------|
B-|---------------------------------------------------------|
G-|--------------6-6-6-6-6-6-9-9-9-9-9-9-12-12-12-12-12-12--|
D-|--6-6-6-6-6-6-6-6-6-6-6-6-9-9-9-9-9-9-12-12-12-12-12-12--|
A-|--6-6-6-6-6-6-4-4-4-4-4-4-7-7-7-7-7-7-10-10-10-10-10-10--|
E-|--4-4-4-4-4-4--------------------------------------------|

Guitar 2
e-|---------------------------------------------------|
B-|---------------------------------------------------|
G-|--8-8-8-8-8-8-6-6-6-6-6-6-4-4-4-4-4-4-8-8-8-8-8-8--|
D-|---------------------------------------------------|
A-|--6-6-6-6-6-6-4-4-4-4-4-4-2-2-2-2-2-2-6-6-6-6-6-6--|
E-|---------------------------------------------------|

Guitar 1
e-|---------------------------------------------------|
B-|---------------------------------------------------|
G-|--------------6-6-6-6-6-6--------------------------|
D-|--6-6-6-6-6-6-6-6-6-6-6-6-2-2-2-2-2-2-4-4-4-4-4-4--|
A-|--6-6-6-6-6-6-4-4-4-4-4-4-2-2-2-2-2-2-4-4-4-4-4-4--|
E-|--4-4-4-4-4-4-------------0-0-0-0-0-0-2-2-2-2-2-2--|

Guitar 2
e-|---------------------------------------------------------------------------|
B-|---------------------------------------------------------------------------|
G-|--13-13-13-13-13-13-15-15-15-15-15-15-16-16-16-16-16-16-17-17-17-17-17-17--|
D-|---------------------------------------------------------------------------|
A-|--11-11-11-11-11-11-13-13-13-13-13-13-14-14-14-14-14-14-15-15-15-15-15-15--|
E-|---------------------------------------------------------------------------|

Guitar 1
e-|---------------------------------------|
B-|---------------------------------------|
G-|--------------6-6-6-6-6-6--------------|
D-|--6-6-6-6-6-6-6-6-6-6-6-6-2-2-2-2-2-2--|
A-|--6-6-6-6-6-6-4-4-4-4-4-4-2-2-2-2-2-2--|
E-|--4-4-4-4-4-4-------------0-0-0-0-0-0--|

Guitar 2
e-|---------------------------------------------------------|
B-|---------------------------------------------------------|
G-|--20-20-20-20-20-20-20-20-20-20-20-20-20-20-20-20-20-20--|
D-|---------------------------------------------------------|
A-|--18-18-18-18-18-18-18-18-18-18-18-18-18-18-18-18-18-18--|
E-|---------------------------------------------------------|

Both guitars
e-|-----------------------------|
B-|-----------------------------|
G-|-----------------------------|
D-|--4-4-4-4-4-4-5-5-5-5-5-5-6--|
A-|--4-4-4-4-4-4-5-5-5-5-5-5-6--|
E-|--2-2-0-2-2-0-3-3-0-3-3-0-4--|

Guitar 1
e-|-----------|
B-|--5--------|
G-|----4-5----|
D-|--------6--|(let ring)
A-|-----------|
E-|-----------|

END
Comments