Home Grown - Tomorrow Chords & Tabs

 

Tomorrow Chords & Tabs

Home Grown Chords & Tabs

Version: 1 Type: Tab 0 ratings
1 star 2 stars 3 stars 4 stars 5 stars
comments

Tomorrow Tab

   
Home Grown - Tomorrow
Album:Kings of Pop
2002
Tabbed by Sred4
I used Guitar Port and headphones to tab this.
This took a long time, its nearly perfect.

1/2 step down

intro 
e|-------------------------0---0------------------|
b|-----------------------4---5--------------------|
g|-------9-9-9-8-8-4-4-4--------------------------|2x
d|-2-2-2-x-x-x-x-x-x-x-x--------------------------|
a|-2-2-2-7-7-7-6-6-2-2-2--------------------------|
e|-0-0-0------------------------------------------|
pm x x

e|-------------------------0---0------------------|
b|-----------------------4---5--------------------|
g|-------9-9-9-8-8-4-4-4--------------------------|
d|-4-4-4-x-x-x-x-x-x-x-x--------------------------|
a|-4-4-4-7-7-7-6-6-2-2-2--------------------------|
e|-2-2-2------------------------------------------|
pm x x

e|------------------------------------------------|
b|------------------------------------------------|
g|-------9-9-9-8-8-4-4-4--6-6---------------------|
d|-7-7-7-x-x-x-x-x-x-x-x--x-x---------------------|
a|-7-7-7-7-7-7-6-6-2-2-2--4-4---------------------|
e|-5-5-5------------------------------------------|
pm x x

e|------------------------------------------------|
b|------------------------------------------------|
g|-------9-9-9-8-8-4-4-4-8-8-9-9------------------|2x
d|-2-2-2-x-x-x-x-x-x-x-x-x-x-x-x------------------|
a|-2-2-2-7-7-7-6-6-2-2-2-6-6-7-7------------------|
e|-0-0-0------------------------------------------|

e|------------------------------------------------|
b|------------------------------------------------|
g|-------9-9-9-8-8-4-4-4-8-8-9-9------------------|
d|-4-4-4-x-x-x-x-x-x-x-x-x-x-x-x------------------|
a|-4-4-4-7-7-7-6-6-2-2-2-6-6-7-7------------------|
e|-2-2-2------------------------------------------|

e|------------------------------------------------|
b|------------------------------------------------|
g|-------9-9-9-8-8-4-4-4--6-6---------------------|
d|-7-7-7-x-x-x-x-x-x-x-x--x-x---------------------|
a|-7-7-7-7-7-7-6-6-2-2-2--4-4---------------------|
e|-5-5-5------------------------------------------|

verse
e|------------------------------------------------|
b|------------------------------------------------|
g|---------------------4-4-4-4---4-4-4-4----------|
d|-2-2-2-2---2-2-2-2---4-4-4-4---4-4-4-4----------|
a|-2-2-2-2---2-2-2-2---2-2-2-2---2-2-2-2----------|
e|-0-0-0-0---0-0-0-0-----------------------12\0---|

e|-------------0---0---0---0---0------------------|
b|---------4-4---4---4---4---4--------------------|
g|------------------------------------------------|2x
d|-2-2-2-2----------------------------------------|
a|-2-2-2-2----------------------------------------|
e|-0-0-0-0----------------------------------------|
pm         x

e|-------------0---0---0---0---0------------------|
b|---------4-4---4---4---4---4--------------------|
g|-4-4-4-4----------------------------------------|
d|-4-4-4-4----------------------------------------|
a|-2-2-2-2----------------------------------------|
e|------------------------------------------------|
pm         x

e|-------------0---0---0---0---0------------------|
b|---------4-4---4---4---7---5--------------------|
g|-4-4-4-4----------------------------------------|
d|-4-4-4-4----------------------------------------|
a|-2-2-2-2----------------------------------------|
e|------------------------------------------------|
pm         x

Pre-Chorus - 11=e 13=t
e|------------------------------------------------|
b|------------------------------------------------|
g|-4-4-4-4-4-4-4-4-4-4-4-4-e-e-9-9----------------|
d|-x-x-x-x-x-x-x-x-x-x-x-x-x-x-x-x----------------|
a|-2-2-2-2-2-2-2-2-2-2-2-2-9-9-7-7----------------|
e|------------------------------------------------|

e|------------------------------------------------|
b|------------------------------------------------|
g|-9-9-9-9-9-9-9-9-9-9-9-9-9-9-9-9----------------|
d|-x-x-x-x-x-x-x-x-x-x-x-x-x-x-x-x----------------|
a|-7-7-7-7-7-7-7-7-7-7-7-7-7-7-7-7----------------|
e|------------------------------------------------|

e|------------------------------------------------|
b|------------------------------------------------|
g|-t-t-t-t-t-t-t-t-e-e-e-e-e-e-e-e----------------|
d|-x-x-x-x-x-x-x-x-x-x-x-x-x-x-x-x----------------|
a|-e-e-e-e-e-e-e-e-9-9-9-9-9-9-9-9----------------|
e|------------------------------------------------|

e|------------------------------------------------|
b|------------------------------------------------|
g|-9-9-9-9-9-9-9-9-8-8-8-8-8-8-8-8----------------|
d|-x-x-x-x-x-x-x-x-x-x-x-x-x-x-x-x----------------|
a|-7-7-7-7-7-7-7-7-6-6-6-6-6-6-6-6----------------|
e|----------------------------------5-5-5---------|
harmonics                           x x x

e|------------------------------------------------|
b|------------------------------------------------|
g|------------------------------------------------|
d|-2-2--2222--2222--222--2222--2222-2-2-2---------|
a|-2-2--2222--2222--222--2222--2222-2-2-2---------|
e|-0-0--0000--0000--000--0000--0000-0-0-0---------|
pm x x  xxxx  xxxx  xxx  xxxx  xxxx x x

Chorus
e|------------------------------------------------|
b|------------------------------------------------|
g|------4-4-6-6-6---------------------------------|
d|-2-2--4-4-6-6-6--6-6----------------------------|
a|-2-2--2-2-4-4-4--6-6----------------------------|
e|-0-0-------------4-4----------------------------|\
                                                    3x
e|------------------------------------------------|/
b|------------------------------------------------|
g|------------------------------------------------|
d|-7-7-7-7-7-7-9-9-9-9-9-9-9-9--------------------|
a|-7-7-7-7-7-7-9-9-9-9-9-9-9-9--------------------|
e|-5-5-5-5-5-5-7-7-7-7-7-7-7-7--------------------|

e|------------------------------------------------|
b|------------------------------------------------|
g|-9-9-9-9-4-4-4-4-6-6-6-6------------------------|
d|-9-9-9-9-4-4-4-4-6-6-6-6-6-6-6-6--7~-------9~---|
a|-7-7-7-7-2-2-2-2-4-4-4-4-6-6-6-6--7~-------7~---|
e|-------------------------4-4-4-4--5~-------7~---|

Post-Chorus        
Guitar 1
e|------------------------------------------------|
b|------------------------------------------------|
g|-------9-9-9-8-8-4-4-4-8-8-9-9------------------|2x
d|-2-2-2-x-x-x-x-x-x-x-x-x-x-x-x------------------|
a|-2-2-2-7-7-7-6-6-2-2-2-6-6-7-7------------------|
e|-0-0-0------------------------------------------|
[ Tab from: http://www.guitartabs.cc/tabs/h/home_grown/tomorrow_tab.html ]
e|------------------------------------------------|
b|------------------------------------------------|
g|-------9-9-9-8-8-4-4-4-8-8-9-9------------------|
d|-4-4-4-x-x-x-x-x-x-x-x-x-x-x-x------------------|
a|-4-4-4-7-7-7-6-6-2-2-2-6-6-7-7------------------|
e|-2-2-2------------------------------------------|

e|------------------------------------------------|
b|------------------------------------------------|
g|-------9-9-9-8-8-4-4-4--6-6---------------------|
d|-7-7-7-x-x-x-x-x-x-x-x--x-x---------------------|
a|-7-7-7-7-7-7-6-6-2-2-2--4-4---------------------|
e|-5-5-5------------------------------------------|

Guitar 2 (I think-may be higher)
e|------------------------------------------------|
b|------------------------------------------------|
g|-9-9-9-9-9-9-9-9-9-9-9-9-9-9-9-9----------------|
d|-x-x-x-x-x-x-x-x-x-x-x-x-x-x-x-x----------------|2x
a|-7-7-7-7-7-7-7-7-7-7-7-7-7-7-7-7----------------|
e|------------------------------------------------|
  14=f 12=w       
e|------------------------------------------------|
b|------------------------------------------------|
g|-f-f-f-f-f-f-f-f--------------------------------|
d|-x-x-x-x-x-x-x-x--------------------------------|
a|-w-w-w-w-w-w-w-w--------------------------------|
e|------------------------------------------------|
  11=e
e|------------------------------------------------|
b|------------------------------------------------|
g|-e-e-e-e-e-e-e-e-e--6-6-------------------------|
d|-x-x-x-x-x-x-x-x-x--x-x-------------------------|
a|-9-9-9-9-9-9-9-9-9--4-4-------------------------|
e|------------------------------------------------|

Verse 2 - same as verse 1 but after "life years gone by"
til "the time of my life" guitar 2 plays scratch mutes

Pre-Chorus

Chorus

Bridge
Guitar 1
e|---0---0---0-----------0-------0----------------|
b|-4---4---4-----------4---4-7-4------------------|
g|-\--------/-------------------------------------|
d|----\--/----------------------------------------|
a|-----3x-----------------------------------------|
e|------------------------------------------------|

e|---0---0---0-----------0------------------------|
b|-4---4---4-----------4---4----------------------|
g|-\--------/-----------------66-6-88-8-----------|
d|----\--/--------------------66-x-88-x-----------|
a|-----3x---------------------44-4-66-6-----------|
e|------------------------------------------------|
pm                            xx   xx

Guitar 2
e|------------------------------------------------|
b|------------------------------------------------|
g|-9~------------------4~-------------------------|
d|-9~------------------4~-------------------------|
a|-7~------------------2~-------------------------|
e|------------------------------------------------|

e|------------------------------------------------|
b|------------------------------------------------|
g|-22----22----44----44---------------------------|
d|-22----22----44----44---------------------------|
a|-00----00----22----22---------------------------|
e|------------------------------------------------|
pm xx    xx    xx    xx 

Next Part
e|------------------------0-0-0-0-0-0-0-0---------|
b|-----------------------5-5-4-4-2-2-0-0----------|
g|-e/t-t-xe-e-8/9-9-x8-8--------------------------|
d|-x/x-x-xx-x-x/x-x-xx-x--------------------------|
a|-9/e-e-x9-9-6/7-7-x6-6--------------------------|
e|------------------------------------------------|

e|------------------------0-0-0-0-0-0-0-0---------|
b|-----------------------4-4-5-5-7-7-5-4----------|
g|-e/t-t-xe-e-8/9-9-x8-8--------------------------|
d|-x/x-x-xx-x-x/x-x-xx-x--------------------------|
a|-9/e-e-x9-9-6/7-7-x6-6--------------------------|
e|------------------------------------------------|

e|------------------------0-0-0-0-0-0-0-0---------|
b|-----------------------5-5-4-4-2-2-0-0----------|
g|-e/t-t-xe-e-8/9-9-x8-8--------------------------|
d|-x/x-x-xx-x-x/x-x-xx-x--------------------------|
a|-9/e-e-x9-9-6/7-7-x6-6--------------------------|
e|------------------------------------------------|

e|------------------------------------------------|
b|------------------------------------------------|
g|-e/t-t-xe-e-8/9-9-x8-8-22222222222--------------|
d|-x/x-x-xx-x-x/x-x-xx-x-22222222222--------------|
a|-9/e-e-x9-9-6/7-7-x6-6-00000000000--------------|
e|----------------------------------------12/-----|
pm                        xxxxxxxxxx

Last Chorus (Whoaaa...)
Guitar 1
e|------------------------------------------------|
b|------------------------------------------------|
g|------4444-6666---------------------------------|3x
d|-2222-4444-6666-6666-77777777-99999999----------|
a|-2222-2222-4444-6666-77777777-99999999----------|
e|-0000-----------4444-55555555-77777777----------|

e|------------------------------------------------|
b|------------------------------------------------|
g|-9-9-9-9-4-4-4-4-6-6-6-6------------------------|
d|-9-9-9-9-4-4-4-4-6-6-6-6-6-6-6-6--7~-------9~---|
a|-7-7-7-7-2-2-2-2-4-4-4-4-6-6-6-6--7~-------7~---|
e|-------------------------4-4-4-4--5~-------7~---|

Guitar 2
e|------------------------------------------------|
b|------------------------------------------------|
g|-9999-4444-9999-8888-99999999-eeeeeeee----------|
d|-xxxx-xxxx-xxxx-xxxx-xxxxxxxx-xxxxxxxx----------|
a|-7777-2222-7777-6666-77777777 99999999----------|
e|------------------------------------------------|

e|------------------------------------------------|
b|------------------------------------------------|
g|-9999-4444-6666------9999-8888-eeee-8888--------|
d|-xxxx-xxxx-xxxx-7777-xxxx-xxxx-xxxx-xxxx--------|
a|-7777-2222-4444-xxxx-7777-6666-9999-6666--------|
e|----------------5555----------------------------|


e|------------------------------------------------|
b|------------------------------------------------|
g|-9999-4444-6666------e/t-t-xe-e-8/9-9-x8-8------|
d|-xxxx-xxxx-xxxx-7777-x/x-x-xx-x-x/x-x-xx-x------|
a|-7777-2222-4444-xxxx-9/e-e-x9-9-6/7-7-x6-6------|
e|----------------5555----------------------------|

e|------------------------------------------------|
b|------------------------------------------------|
g|-9-9-9-9-8-8-8-8-6-6-6-6-4-4-4-4----------------|
d|-x-x-x-x-x-x-x-x-x-x-x-x-x-x-x-x----------------|
a|-7-7-7-7-6-6-6-6-4-4-4-4-2-2-2-2----------------|
e|------------------------------------------------|

Guitar 1 end on
e|------------------------------------------------|
b|------------------------------------------------|
g|------------------------------------------------|
d|-2~---------------------------------------------|
a|-2~---------------------------------------------|
e|-0~---------------------------------------------|

Guitar 2 end on
e|---0---0---0---0---0---0---0---0----------------|
b|-5---5---4---4---2---2---0---0------------------|
g|------------------------------------------------|4x
d|------------------------------------------------|
a|------------------------------------------------|
e|------------------------------------------------|
Comments