Home Grown - Surfer Girl Chords & Tabs

 

Surfer Girl Chords & Tabs

Home Grown Chords & Tabs

Version: 2 Type: Bass Tab 0 ratings
1 star 2 stars 3 stars 4 stars 5 stars
comments

Surfer Girl Bass Tab

Song:Surfer girl
Band:homegrown
Album: either
tabbed by:Scott Colson
G:--7---7------6---6-------4----4-------6----6--------------
D:9---9---9-7---7---7--5----5----5-4----4-----------------
A:----------------------------------------------------------------
E:----------------------------------------------------------------

G:---------------------------------------------------------------
D:-------------------------2-2-2-2-----------------------------------
A:2-2-2-2---5-5--------------------------------------------------------
E:-------------------5-5----------------3-3-3--2-2-2---------------------

G:---------------------------------------------------------------
D:---------------------------------------------------------------
A:-2-2-2-2---5-5--4-4----2-2-2-2--5-5-5-5-------------------------------------
----
E:-----------------------------------------------------3-3-2-2-------
[ Tab from: http://www.guitartabs.cc/tabs/h/home_grown/surfer_girl_btab_ver_2.html ]
G:-----------------------------797----------------------------------
D:-------9-7-----------------------9--------------------------------
A:------------9-5---------------------9-10-10-9--------------------------
E:-7-7------------0-5--7-7---------------------------------------------
solo
G:----------------4-6-7-6-4-6-7-6---------------4-6-7-----------------------
D:-----0-2-4-7------------------------9-7-5-7-5--------5-7-5-4----------------
A:0-2--------------------------------------------------------------
E:---------------------------------------------------------------
run
G:---------------------------------------------------------------
D:------2-4--------------------------------------------------------
A:-2-5---------2-4-5----4-5-7----1-2-4--------------------------------------
E:------------3----------5---------2--------------------------------


{{{{{{{{{{{{{{{{{{{{{{{{{{{{{{{{{{{
Version 2
}}}}}}}}}}}}}}}}}}}}}}}}}}}}}}}}}}}


  
Song:Surfer Girl Band:Home Grown Album:Thats business/Act your agetabbed
by:Adumb
G:---------------------------------------------------------------
D:---------------------------------------------------------------
A:--2 2 2 2--5 5---------7 7 7 7-------------------------
E:-------------------55----------- -- ---3 3 2 2-----------

Thats basically how it goes the whole song, listen to the CD for the beat
Comments