Home Grown - Suffer Chords & Tabs

 

Suffer Chords & Tabs

Home Grown Chords & Tabs

Version: 1 Type: Tab 0 ratings
1 star 2 stars 3 stars 4 stars 5 stars
comments

Suffer Tab

Suffer
by Home Grown
Tabed by Jon Jenson

Intro:  Both Guitars 
e|------------------------------------------------------------------------| 
B|------------------------------------------------------------------------| 
G|-----------------2-----------------------2------7-7-7-7-7-7-7-7-7-7-7-7-| 
D|4-4--4-4-4---2-----2----2-2--2-2-2---2-----2----7-7-7-7-7-7-7-7-7-7-7-7-| 
A|4-4--4-4-4-5---5-----5--2-2--2-2-2-4---4-----4--5-5-5-4-4-4-5-5-5-4-4-4-| 
E|2-2--2-2-2--------------0-0--0-0-0--------------------------------------| 

Intro Cont'd:  Both Guitars 
e|------------------------------------------------------------------------| 
B|------------------------------------------------------------------------| 
G|7-7-7-7-------------------2-----------------------2------7-7-7-7-7-7----| 
D|7-7-7-7--4-4--4-4-4---2-----2----2-2--2-2-2---2-----2----7-7-7-7-7-7----| 
A|5-5-5-4--4-4--4-4-4-5---5-----5--2-2--2-2-2-4---4-----4--5-5-5-4-4-4----| 
E|---------2-2--2-2-2--------------0-0--0-0-0-----------------------------| 

Intro Cont'd:  Both Guitars 
e|------------------------------------------------------------------------| 
B|------------------------------------------------------------------------| 
G|7-7-7-7-7-7-7-7-7-9-9-9-11-11-11-13-13-13-13-13-13----------------------| 
D|7-7-7-7-7-7-7-7-7-9-9-9-11-11-11-13-13-13-13-13-13----------------------| 
A|5-5-5-4-4-4-5-5-5-7-7-7--9--9--9-11-11-11-11-11-11----------------------| 
E|------------------------------------------------------------------------| 

Verse:  Guitar 1  (2x)   
e|------------------------------------------------------------------------| 
B|------------------------------------------------------------------------| 
G|------------------------------------------------------------------------| 
D|4-4-4-4-4-7-7-7-7-7-7-7-7-7-7-7-7-7-7-7-7-7-7--2-2-2-2-2-2-4-4-4-4-4-4--| 
A|4-4-4-4-4-7-7-7-7-7-7-7-7-7-7-7-7-7-7-7-7-7-7--2-2-2-2-2-2-4-4-4-4-4-4--| 
E|2-2-2-2-2-4-4-4-4-4-4-5-5-5-5-5-5-5-5-5-5-5-5--0-0-0-0-0-0-2-2-2-2-2-2--| 
                                                 PM~   PM~   PM~   PM~ 

Verse Cont'd:  Guitar 1 
e|------------------------------------------------------------------------| 
B|------------------------------------------------------------------------| 
G|7-7-7-7-7-7-7-7-7-7-7-7-------------------------------------------------| 
D|7-7-7-7-7-7-7-7-7-7-7-7-------------------------------------------------| 
A|5-5-5-5-5-5-5-5-5-5-5-5-------------------------------------------------| 
E|------------------------------------------------------------------------| 

Verse:  Guitar 2  (2x) 
e|------------------------------------------------------------------------| 
B|------------------------------------------------------------------------| 
G|-----------------------------------------------9-9-9-9-9-9--------------| 
D|4-4-4-4-4-7-7-7-7-7-7-7-7-7-7-7-7-7-7-7-7-7-7--9-9-9-9-9-9-4-4-4-4-4-4--| 
A|4-4-4-4-4-7-7-7-7-7-7-7-7-7-7-7-7-7-7-7-7-7-7--7-7-7-7-7-7-4-4-4-4-4-4--| 
E|2-2-2-2-2-4-4-4-4-4-4-5-5-5-5-5-5-5-5-5-5-5-5--------------2-2-2-2-2-2--| 
                                                 PM~   PM~   PM~   PM~ 
[ Tab from: http://www.guitartabs.cc/tabs/h/home_grown/suffer_tab.html ]
Verse Cont'd:  Guitar 2 
e|------------------------------------------------------------------------| 
B|------------------------------------------------------------------------| 
G|7-7-7-7-7-7-7-7-7-7-7-7-------------------------------------------------| 
D|7-7-7-7-7-7-7-7-7-7-7-7-------------------------------------------------| 
A|5-5-5-5-5-5-5-5-5-5-5-5-------------------------------------------------| 
E|------------------------------------------------------------------------| 

Chorus:  Guitar 1  (3x) 
e|------------------------------------------------------------------------| 
B|------------------------------------------------------------------------| 
G|7-7-7-7-7-7-7-7-7-7-7-7-------------------------------------------------| 
D|7-7-7-7-7-7-7-7-7-7-7-7-2-2-2-2-2-4-4-4-4-4-4---------------------------| 
A|5-5-5-5-5-5-5-5-5-5-5-5-2-2-2-2-2-4-4-4-4-4-4---------------------------| 
E|------------------------0-0-0-0-0-2-2-2-2-2-2---------------------------| 

Chorus:  Guitar 2  (3x) 
e|------------------------------------------------------------------------| 
B|------------------------------------------------------------------------| 
G|7-7-7-7-7-7-7-7-7-7-7-7-9-9-9-9-9-11-11-11-11-11-11---------------------| 
D|7-7-7-7-7-7-7-7-7-7-7-7-9-9-9-9-9-11-11-11-11-11-11---------------------| 
A|5-5-5-5-5-5-5-5-5-5-5-5-7-7-7-7-7--9--9--9--9--9--9---------------------| 
E|------------------------------------------------------------------------| 

Repeat 2nd Part of Intro 

Repeat Verse 

Repeat Chorus 

Bridge:  (I didn't mean to let you down)  Strumming isn't there 
e|------------------------------------------------------------------------| 
B|------------------------------------------------------------------------| 
G|-7------9-------7-------------------------------------------------------| 
D|-7------9-------7-------------------------------------------------------| 
A|-5------7-------4-------------------------------------------------------| 
E|------------------------------------------------------------------------| 

Solo:  ??? 

Part right after solo:  Guitar 2 
e|------------------------------------------------------------------------| 
B|------------------------------------------------------------------------| 
G|7-7-7-7-7-7-7-7-11-11-11-11-11-11-11-11-12-12-12-12-12-12-12-12---------| 
D|x-x-x-x-x-x-x-x--x--x--x--x--x--x--x--x--x--x--x--x--x--x--x--x---------| 
A|5-5-5-5-5-5-5-5--9--9--9--9--9--9--9--9-10-10-10-10-10-10-10-10---------| 
E|------------------------------------------------------------------------| 

Part right after solo cont'd:  Guitar 2 
e|------------------------------------------------------------------------| 
B|------------------------------------------------------------------------| 
G|9-9-9-9-9-9-9-9---------------------------------------------------------| 
D|x-x-x-x-x-x-x-x---------------------------------------------------------| 
A|7-7-7-7-7-7-7-7---------------------------------------------------------| 
E|------------------------------------------------------------------------| 

Repeat Chorus 

Outro:  Both Guitars  (Awesome drumming part) 
e|------------------------------------------------------------------------| 
B|------------------------------------------------------------------------| 
G|-----------7~------------7~------------7--7-7-7-7-7-7-7-7-7------------7| 
D|4~-4-6-6-2-7~-4~-4-6-6-2-7~-4~-4-6-6-2-7--7-7-7-7-7-7-7-7-7-4~-4-6-6-2-7| 
A|4~-4-6-6-2-5~-4~-4-6-6-2-5~-4~-4-6-6-2-5--5-5-5-5-5-5-5-5-5-4~-4-6-6-2-5| 
E|2~-2-4-4-0----2~-2-4-4-0----2~-2-4-4-0----------------------2~-2-4-4-0--|


Comments