Home Grown - Single All The Way Chords & Tabs

 

Single All The Way Chords & Tabs

Home Grown Chords & Tabs

Version: 2 Type: Bass Tab 0 ratings
1 star 2 stars 3 stars 4 stars 5 stars
comments

Single All The Way Bass Tab

   
Single All The Way- Home Grown
Tabbed By Jesse Krupocin	
Email JK976783@aol.com with any requests

Let Ring During Synth Intro
Eb :3~~~--------|

Main Part-Repeats Often at different tempos
Gb :-------------------------------------------------------------|
Db :--333--------------333------222------333------------------235|
Ab :33----5----2225--33----5-------5---33----5----2225-----235---|
Eb :--------33---------------33----------------33--------35------|

"I don't want you, I don't need you..."
Gb :-----------------|
Db :-----------------|
Ab :-----------------|
Eb :5555333311110000-|              
[ Tab from: http://www.guitartabs.cc/tabs/h/home_grown/single_all_the_way_btab_ver_2.html ]
"Stay away from meeeee..." (bass run after second verse)
Gb :---------------------------|
Db :------22--02333--3355--32--|
Ab :00--23-------------------3-|
Eb :---------------------------|

Played After part above
Gb :----------------------------------------|
Db :----------------------------------------|
Ab :2h3333--------------2h3333--------------|
Eb :------2h3333-1h222--------2h3333--1~~~--|


Played during last "I don't want you, I don't need you.."
Gb :--------------------------------------------------------------|
Db :--------------------------------------------------------------|
Ab :--------------------------------------------------------------|
Eb :55553333111133335555333311113333555533331111333311111111333333|

Outro
Gb :----7--------------|
Db :-------------------|
Ab :-------------------|
Eb :5-6----7-6~~~------|

Comments