Home Grown - She Said Chords & Tabs

 

She Said Chords & Tabs

Home Grown Chords & Tabs

Version: 2 Type: Tab 0 ratings
1 star 2 stars 3 stars 4 stars 5 stars
comments

She Said Tab

She Said...
by Home Grown
from the album "That's Business"
tabbed by Roy from the suspicious individuals

Intro:
Play up to | 4x
e-|--------------------------------------------|
B-|--------------------------------------------|
G-|-------9\8-------9\8-------9\8--------------|
D-|--9-9-------7-7-------6-6-------4-4--4--4-4-|
A-|--9-9--7\6--7-7--7\6--6-6--7\6--4-4--4--4-4-|
E-|--7-7-------5-5-------4-4-------2-2--2--2-2-|

e-|--------------------------------------------|
B-|--------------------------------------------|
G-|--------------------------------------------|
D-|--9-9-9--9-9-9-9-9-9--9-9-9--9-9-9--9-9-9-9-|
A-|--9-9-9--9-9-9-9-9-9--9-9-9--9-9-9--9-9-9-9-|
E-|--7-7-7--7-7-7-7-7-7--7-7-7--7-7-7--7-7-7-7-|

Verse:
Play up to | 2x
         "When I think about her..."
e-|-------------------------------------------------------|
B-|-------------------------------------------------------|
G-|-------------------------------------------------------|
D-|--9-9-9--9-9-9-9-9-9--9-9-9--7-7-7--7-7-7-7-7-7--7-7-7-|
A-|--9-9-9--9-9-9-9-9-9--9-9-9--7-7-7--7-7-7-7-7-7--7-7-7-|
E-|--7-7-7--7-7-7-7-7-7--7-7-7--5-5-5--5-5-5-5-5-5--5-5-5-|

e-|--------------------------|
B-|--------------------------|
G-|-----9--8--9-11-9-8-9-8-6-|
D-|--2-----------------------|
A-|--2--7--6--7--9-7-6-7-6-4-|
E-|--0-----------------------|

Chorus:
"Maybe if she would try..."
e-|----------------------------------------------------------|
B-|----------------------------------------------------------|
G-|--6-6--6-6-6--6-6-6--6-6-6--6-9-9--9-9-9--9-9-9--9-9-9--9-|
D-|--6-6--6-6-6--6-6-6--6-6-6--6-9-9--9-9-9--9-9-9--9-9-9--9-|
A-|--4-4--4-4-4--4-4-4--4-4-4--4-7-7--7-7-7--7-7-7--7-7-7--7-|
E-|----------------------------------------------------------|

e-|----------------------------------------------------------------|
B-|----------------------------------------------------------------|
G-|--------------------------------------------11-11--11-11-11--11-|
D-|--9-9--9-9-9--9-9-9--9-9-9--9-4-4--4-4-4--4-11-11--11-11-11--11-|
A-|--9-9--9-9-9--9-9-9--9-9-9--9-4-4--4-4-4--4--9--9---9--9--9---9-|
E-|--7-7--7-7-7--7-7-7--7-7-7--7-2-2--2-2-2--2---------------------|
[ Tab from: http://www.guitartabs.cc/tabs/h/home_grown/she_said_tab_ver_2.html ]
e-|----------------------------------------------------------|
B-|----------------------------------------------------------|
G-|--6-6--6-6-6--6-6-6--6-6-6--6-9-9--9-9-9--9-9-9--9-9-9--9-|
D-|--6-6--6-6-6--6-6-6--6-6-6--6-9-9--9-9-9--9-9-9--9-9-9--9-|
A-|--4-4--4-4-4--4-4-4--4-4-4--4-7-7--7-7-7--7-7-7--7-7-7--7-|
E-|----------------------------------------------------------|
                                            "She said she's got..."
e-|--------------------------------------------|
B-|--------------------------------------------|
G-|--11-11--11-11-11--11-11-11--11-11-11--11-9-|
D-|--11-11--11-11-11--11-11-11--11-11-11--11-9-|
A-|---9--9---9--9--9---9--9--9---9--9--9---9-7-|
E-|--------------------------------------------|

Play up to | 4x                    "She said she's got..."
e-|------------------------------------------------------------|
B-|------------------------------------------------------------|
G-|--4--4-4-4-4-4-4--------------------------------------------|
D-|--4--4-4-4-4-4-4--2-2--2-2-2-2--4-4--4-4-4--4-2-2--2-2-2--2-|
A-|--2--2-2-2-2-2-2--2-2--2-2-2-2--4-4--4-4-4--4-2-2--2-2-2--2-|
E-|------------------0-0--0-0-0-0--2-2--2-2-2--2-0-0--0-0-0--0-|

Play Intro
Play Verse

Bridge:
          "My head's spinning around..."
e-|----------------------------------------------------------|
B-|----------------------------------------------------------|
G-|----------------------------------------------------------|
D-|--4-4--4-4-4--4-4-4--4-4-4--4-2-2--2-2-2--2-2-2--2-2-2--2-|
A-|--4-4--4-4-4--4-4-4--4-4-4--4-2-2--2-2-2--2-2-2--2-2-2--2-|
E-|--2-2--2-2-2--2-2-2--2-2-2--2-0-0--0-0-0--0-0-0--0-0-0--0-|
          "Maybe I'm someone she... she can't understand."
e-|--------------------------------|
B-|--------------------------------|
G-|--------------------------------|
D-|--4-4--4-4-4--4-4-4--4-4-4--4-2-|
A-|--4-4--4-4-4--4-4-4--4-4-4--4-2-|
E-|--2-2--2-2-2--2-2-2--2-2-2--2-0-|
Play up to | 3x                             "She can't understand."
e-|------------------------------------------------------------|
B-|------------------------------------------------------------|
G-|---------------9--9-9-9-9-9-9--9-9-9-9-9-11--11-11-11-11-11-|
D-|--9--9-9-9-9-9-9--9-9-9-9-9-9--9-9-9-9-9-11--11-11-11-11-11-|
A-|--9--9-9-9-9-9-6--6-6-6-6-6-7--7-7-7-7-7--9---9--9--9--9--9-|
E-|--7--7-7-7-7-7----------------------------------------------|

e-|---------------------------------------------------------------|
B-|---------------------------------------------------------------|
G-|---------------9--9-9-9-9-9-9--9-9-9-9-9-11-11--11-11-11--11---|
D-|--9--9-9-9-9-9-9--9-9-9-9-9-9--9-9-9-9-9-11-11--11-11-11--11-9-|
A-|--9--9-9-9-9-9-6--6-6-6-6-6-7--7-7-7-7-7--9--9---9--9--9---9-9-|
E-|--7--7-7-7-7-7-----------------------------------------------7-|
Comments