Hole - Violet Chords & Tabs

 

Violet Chords & Tabs

Hole Chords & Tabs

Version: 2 Type: Bass Tab 0 ratings
1 star 2 stars 3 stars 4 stars 5 stars
comments

Violet Bass Tab

#----------------------------------PLEASE NOTE---------------------------------#
#This file is the author's own work and represents their interpretation of the #
#song. You may only use this file for private study, scholarship, or research. #
#------------------------------------------------------------------------------##
Hole - Violet
from Live Through This

1st, 2nd verses
||----------|-------|-----------------------|--------------------------|
||o---------|-------|-----------------------|--------------------------|
||o---------|-------|-----------------------|--------------------------|
||---0------|-------|--3--3--3--3--3--3--3--|-3--3--3--3--3--3--0------|
                                                                        
                                                                        
|----------------------|---------------------|-------------------------|
|----------------------|---------------------|-------------------------|
|----------------------|-3--3--3----3--3-----|-------------------------|
|--0--0--0----0--0--0--|------------------0--|-3---3--3--3--3--3--3----|
                                                                        
                                                                        
|----------------------|----------------------|---------------------|
|----------------------|----------------------|---------------------|
|----------------------|----------------------|-3--3--3----3--3-----|
|-3--3--3--3--3--3--0--|--0--0--0----0--0--0--|------------------0--|
                                                                        
                                                                        
|-------------------------|-----------------------|
|-------------------------|-----------------------|
|-------------------------|-----------------------|
|-3---3--3--3--3--3--3----|-3---2--2--1--1--1--0--|
                                                                        
                                                                        
|----------------------|---------------------|-------------------------|
|----------------------|---------------------|-------------------------|
|----------------------|-3--3--3----3--3-----|-------------------------|
|--0--0--0----0--0--0--|------------------0--|-3---3--3--3--3--3--3----|
                                                                        
                                                                        
|-------------------------|
|-------------------------|
|-------------------------|
|-3---3--3--3--3--3--3----|
                                                                        
                                                                        
|----------------------|---------------------|-------------------------|
|----------------------|---------------------|-------------------------|
|----------------------|-3--3--3----3--3-----|-------------------------|
|--0--0--0----0--0--0--|------------------0--|-3---3--3--3--3--3--3----|
                                                                        
                                                                        
|-------------------------|-----------------------|----------------------|
|-------------------------|-----------------------|----------------------|
|-------------------------|-----------------------|----------------------|
|-3---3--3--3--3--3--3----|-0--0--0--0---0--0--0--|--1--1--1--1----1--1-1|
                                                                        
                                                                        
|-----------------------|-----------------------|
|-----------------------|-----------------------|
|-----------------------|-----------------------|
|-3---3--3--3--3--3--3--|-3----3--3----5--7--7--|


|----------------------|---------------------|-------------------------|
|----------------------|---------------------|-------------------------|
|----------------------|---------------------|-------------------------|
|--0--0--0----0--0--0--|-1--1--1--1--1--1--1-|-3---3--3--3--3--3--3----|
                                                                        
                                                                        
|-------------------------|
|-------------------------|
|-------------------------|
|-3---3--3--3--3--3--3----|
                                                                        
                                                                        
|----------------------|---------------------|-------------------------|
|----------------------|---------------------|-------------------------|
|----------------------|---------------------|-------------------------|
|--0--0--0----0--0--0--|-1--1--1--1--1--1--1-|-3---3--3--3--3--3--3----|
                                                                        
                                                                        
|-------------------------|
|-------------------------|
|-------------------------|
|-3---3--5--------7-------|
                                                                        
[ Tab from: http://www.guitartabs.cc/tabs/h/hole/violet_btab_ver_2.html ]
Pre-Chorus
                                                                        
|--------------|----------|--------|--------------------------|
|--------------|----------|--------|--------------------------|
|--------------|----------|--------|--------------------------|
|---0----------|----------|--------|--5--5--5--5--5--5--5--4--|
                                                                        
                                                                        
|----------------|----------------------|------------------------------|
|----------------|----------------------|------------------------------|
|------------7\--|--3--3--3----3--3--3--|-5--5--5-------5--5-----------|
|-0--0--0--------|----------------------|----------------------0-------|
                                                                        
                           Chorus                                       
|------------------------|---------------------|-----------------------|
|------------------------|---------------------|-----------------------|
|------------------------|---------------------|-----------------------|
|-5--5--5------5--5--4---|-0--0--0----0--0--7--|-7/8--8--8---8--8--8---|
                                                                        
                                                                        
|----------------------------------|---------------------|--------------
|----------------------------------|---------------------|--------------
|----------------------------------|---------------------|--------------
|--8/10--10--10--10-----10--10--0--|-5--5--5----5--5--4--|--0--0--0-----
                                                                        
                                                                        
-----------|------------------------|------------------------------|
-----------|------------------------|------------------------------|
-----------|------------------------|------------------------------|
--0--0--7--|--7/8--8--8----8--8--8--|-8/10--10--10----10--10--0----|

1.
|--------------------------||
|-------------------------o||
|-------------------------o||
|--5----5--5----5--5--4----||
                                                                        
2.                                                                      
|----------------------|--------------------|---------------------------|
|----------------------|--------------------|---------------------------|
|----------------------|---------------7\---|-3----3---3------3---3--3--|
|-5---5--5----5--5--4--|--0--0---0----------|---------------------------|
                                                                        
                                                 Chorus                 
|-----------------------|----------------------|-----------------------|
|-----------------------|----------------------|-----------------------|
|--5--5--5----5--5------|----------------------|--------------7\-------|
|--------------------0--|--5--5--5----5--5--4--|--0--0--0--------------|
                                                                       
                                                                        
|----------------------|---------------------|-------------------------|
|----------------------|---------------------|-------------------------|
|-3--3--3----3--3--3---|-5--5--5----5--5-----|-------------------------|
|----------------------|------------------0--|-5--5--5----5--5--4------|
                                                                        
                         bridge                                         
|----------------------|------------|---------|-------|----------------|
|----------------------|------------|---------|-------|----------------|
|----------------------|------------|---------|-------|----------------|
|-5--5--5----5--5--4---|--0---------|---0-----|-------|---------5--4---|
                                                                        
                                                          Chorus        
|--------|---------|-------|--------------------------||----------------
|--------|---------|-------|--------------------------||o---------------
|--------|---------|-------|--------------------------||o---------------
|---0----|---0-----|-------|--5--5--5--5--5--5--5--5--||---0--0--0------
                                                                        
                                                                        
------------|------------------------|---------------------------------|
------------|------------------------|---------------------------------|
------------|------------------------|---------------------------------|
---0--0--7--|--7/8--8--8----8--8--8--|-8/10--10--10----10--10--0-------|
                                                                        
   play 4 times                                                         
|------------------------||------------|
|-----------------------o||------------|
|-----------------------o||------------|
|--5--5--5----5--5--4----||---0--------|
                                                                        
                                                                        
=======================================================================
h = hammeron                    Judy Letostak                         
p = pulloff                     Internet letostak@ix.netcom.com
/\ = slide                      Fidonet 1:202/762                     
x = ghost note                  MetalNet 182:100/2                    
t = tap (right hand)            The Music Shop BBS (619)423-4970 24hrs
~ = vibrato                     * = picked harmonic
bf = bend full                  tr = trill
rb = release bend               p.s. = pick scrape
dive = dive with bar            b = bend / step written over note
========================================================================
The Music Shop BBS (619)423-4970  24hrs
Guitar Tab, Bass Tab, Lyrics, Sound Files, Pictures, BRE...LORD...FidoNet...
MetalNet...In a band?  Want some exposure?  I have a file area for bands
will take anything that can be put on a computer...Lyrics, pictures, sound
files, gig ads...email me or call my bbs.  It's free, and access is free.
Also have a menu for band to put up Biographies, reviews of shows, demos,
gig advertisements, and you can sell your demo/CD here as well...And it's
absolutely FREE!
Comments