Hole - Sugar Coma Chords & Tabs

 

Sugar Coma Chords & Tabs

Hole Chords & Tabs

Version: 3 Type: Bass Tab 0 ratings
1 star 2 stars 3 stars 4 stars 5 stars
comments

Sugar Coma Bass Tab

This is my first Tab, i looked at the other "Sugar Coma" one and it wasn't right so i 
it out for myself (eevn though it wasn;t hard) This is a very easy song to play and its 
nice!

So enjoy, and please vote and comment if i've made any mistake.

Thank you.

Intro

G|------------------------------------|
D|------------------------------------|
A|-----3-------3----------------------|
E|1-1/---1-1/-----3-3-3-333-3-3-3-333-|

Verse
[ Tab from: http://www.guitartabs.cc/tabs/h/hole/sugar_coma_btab_ver_3.html ]
G|----------------------------------------------|
D|----------------------------------------------|
A|------3-------3-------3-----------------------|
E|-1-1/----1-1/----1-1/----3-3-3-333-3-3-3-333--| x2

Chorus

G|---------------------------------------|
D|---------------------------------------|
A|----------3-3-3-333--------------------|
E|-1-1-1-111---------3-3-3-333-3-3-3-333-|

After the second verse you just continue playing the chorus until the end where you play:

G|----------------|
D|----------------|
A|--------3-------|
E|-1------------3-|
Comments