Hole - Make Me Over Chords & Tabs

 

Make Me Over Chords & Tabs

Hole Chords & Tabs

Version: 1 Type: Tab 0 ratings
1 star 2 stars 3 stars 4 stars 5 stars
comments

Make Me Over Tab

   
Hole
Celebrity Skin

Tabbed by Nic Young 
http://garbageman.cjb.net

After watching the '98 MTV Awards many times, I changed the chorus around a bit.

Verse
"Oh make me over"
   A5    C#5   F#5
e|-----------------|
B|-----------------|
G|-----------------|
D|-7-7--11-11--4-4-|
A|-7-7--11-11--4-4-|
E|-5-5--9--9---2-2-|
Keep these notes short, except for the last F#5 before 
the chorus, which you should let ring.

Chorus
"Hey...so glad..."
e|------------------------------------------------------------------------|
B|---3-3-3-3--2-2-2-2--3-3-3-3--2-2-2-2-------------------3-3-3-3-3-3-3-3-|
G|---2-2-2-2--2-2-2-2--2-2-2-2--2-2-2-2----------4-4-4-4--2-2-2-2-2-2-2-2-|
D|---0-0-0-0--2-2-2-2--0-0-0-0--2-2-2-2--4-4-4-4-4-4-4-4--0-0-0-0-0-0-0-0-|
A|---------------------------------------4-4-4-4-2-2-2-2------------------|
E|---------------------------------------2-2-2-2--------------------------|

Bridge
[ Tab from: http://www.guitartabs.cc/tabs/h/hole/make_me_over_tab.html ]
 A              D         A      D
   When I wake up, in my makeup
 A         D        
It's too early
F# 
For that dress
 A               D      A                 D
Wilted and faded, somewhere in hollywood
A               D               
I'm glad I came here
 F#             
With your pound of flesh

The first two times through pick the chords like this:
     A    D
e|---------2-|
B|----2---3--|
G|---2---2---|
D|--2---0----|
A|-0---------|
E|-----------|

The third & fourth times through just play normal chords. On the 
F#, jam on the distortion and head into the verse.

Outro:
It's just the same as the verse, but when Courtney sings "No I'm not selling cheap" 
(the last lyric), play F#5 with a bit of tremolo, then play the main riff once again.

Thanks to Eddie Chan  for pointing out an error.
Comments