Hole - I Think I Would Die Chords & Tabs

 

I Think I Would Die Chords & Tabs

Hole Chords & Tabs

Version: 3 Type: Bass Tab 0 ratings
1 star 2 stars 3 stars 4 stars 5 stars
comments

I Think I Would Die Bass Tab

Song: I think that i would die
BAnd: Hole
Tabbed by: salma s.

( i also tabbed the asking for it tabs...i forgot to put my name and shit...
oh well...now you people know...)


I tried looking for the right bass tab for this song and most people
just took guitar parts of the sonf and passed them off as the the bass parts
..so i took the liberty at figuring out the RIGHT bass tabs for this song...
it didnt take me long...well here it is...and if some people think that this tab
is wrong then email me at salma_shaikh5@hotmail.com and tell me the correct way
to play it.....i don't think anyone will email me 
because i'm really sure this tab is correct... so enjoy!

First Verse: I'm stupid....I'm smarting
G|-------------------------------------------------------------------------|
D|-------------------------------------------------------------------------|
A|----------1-1--2-3-(3)----1-1-1--2-3-(3)---------------------------------|
D|-(0)---5---------------5-----------------5-------------------------------|
 
(the fingering part from 2 to 3 is really fast and you can hardly hear it.
  if it doesnt sound right to u playing the 2 on the A string then play w/o the
2  and play 3 on the A string(c) twice)


  I'm stupid......I'm smarting                  
G|-------------------------------------------------------------------------|
D|-------------------------------------------------------------------------|
A|-1-1-1--2-3-(3)-----1-1-1--2-3-(3)---------------------------------------|
D|----------------5------------------5-5-5-4-3-0---------------------------|


  I want my baby..Where is the baby?
G|--------------------------------------------------|
D|--------------------------------------------------|
A|--1-1---2-3-3-3-----------------------------------|Repeat till Chorus
D|------------------5-5-5-5-4-3-0-------------------|

Chorus 1: Rose white..rose red...
G|--------------------------------------------------------------------------
D|--------------------------------------------------------------------------
A|--5-5--8--8-8-8-8-7-5-3-3-3-3--3------------------------------------------
D|--------------------------------------------------------------------------

  Roses in in my head
G|--------------------------------------------------------------------------
D|--------------------------------------------------------------------------
A|-5-5-8-8-8-8-8-8-8-10-10-10-10-10-10-10-----------------------------------
D|--------------------------------------------------------------------------

 Rose white..rose red...
G|--------------------------------------------------------------------------
D|--------------------------------------------------------------------------
A|--5-5--8--8-8-8-8-7-5-3-3-3-3--3------------------------------------------
D|--------------------------------------------------------------------------

  aaaah aa aaaah ah
G|--------------------------------------------------------------------------
D|--------------------------------------------------------------------------
A|-5-5-8-8-8-8-8-8-8-10-10-10-10-10-10-10-----------------------------------
D|--------------------------------------------------------------------------

Verse 2: Yea, yea...I want some
G|--------------------------------------------------------------------------
D|--------------------------------------------------------------------------
A|----------1-1--2-3-(3)----1-1-1--2-3-(3)----------------------------------
D|-(0)---5---------------5-----------------5--------------------------------
 (the fingering part from 2 to 3 is really fast and you can hardly hear it)

[ Tab from: http://www.guitartabs.cc/tabs/h/hole/i_think_i_would_die_btab_ver_3.html ]
  yea, yea...there is none...                 
G|--------------------------------------------------------------------------
D|--------------------------------------------------------------------------
A|-1-1-1--2-3-(3)-----1-1-1--2-3-(3)----------------------------------------
D|----------------5------------------5-5-5-4-3-0----------------------------

  I want my baby..Where is the baby?...I want my baby...who took the baby?
G|-----------------------------------------------------------|
D|-----------------------------------------------------------|
A|--1-1---2-3-3-3--------------------------------------------|about 5x
D|------------------5-5-5-5-4-3-0----------------------------|


Chorus 2: There is no milk

G|--------------------------------------------------------------|
D|--------------------------------------------------------------|Repeat till
A|-1-1-(1)-2-3-3-3-(3)-10-10-10-10-10---------------------------|Chorus 1
D|-------------------------------------5-5----------------------|


Chorus 1: Rose white..rose red...
G|--------------------------------------------------------------------------
D|--------------------------------------------------------------------------
A|--5-5--8--8-8-8-8-7-5-3-3-3-3--3------------------------------------------
D|--------------------------------------------------------------------------

  Roses in in my head
G|--------------------------------------------------------------------------
D|--------------------------------------------------------------------------
A|-5-5-8-8-8-8-8-8-8-10-10-10-10-10-10-10-----------------------------------
D|--------------------------------------------------------------------------

 Rose white..rose red...
G|--------------------------------------------------------------------------
D|--------------------------------------------------------------------------
A|--5-5--8--8-8-8-8-7-5-3-3-3-3--3------------------------------------------
D|--------------------------------------------------------------------------

  aaaah aa aaaah ah
G|--------------------------------------------------------------------------
D|--------------------------------------------------------------------------
A|-5-5-8-8-8-8-8-8-8-10-10-10-10-10-10-10-----------------------------------
D|--------------------------------------------------------------------------

Play Chorus 2: Ow.......OOOW

G|----------------------------------------------------------------|
D|----------------------------------------------------------------|x4
A|-1-1-(1)-2-3-3-3-(3)-10-10-10-10-10-----------------------------|
D|-------------------------------------5-5------------------------|

Verse 3: She lost all her innocence..give it to an absess

G|--------------------------------------------------------------------------
D|--------------------------------------------------------------------------
A|-------------5-----------5-----------5------------------------------------
D|---5---5-(5)---5---5-(5)---5---5-(5)---5---5-(5)--------------------------
(i'm not quite sure about this part)

Verse 4: yes, not yours FUCK YOU

G|--------------------------------------------------------------------------
D|--------------------------------------------------------------------------
A|--1-1--1-2--1-1--1-2--1-1--1-2--1-1--1-2----------------------------------
D|--------------------------------------------------------------------------

Chorus 2: There is no milk

G|--------------------------------------------------------------------------
D|--------------------------------------------------------------------------
A|-1-1-(1)-2-3-3-3-(3)-10-10-10-10-10---------------------------------------
D|-------------------------------------5-5----------------------------------

Repeat till end...
Comments